Hinário Adventista

home > Hinário Adventista

Deus De Amor Tab

Hinário Adventista

Difficulty: nolevelnolevel

by HELON

tuner correct add songbook print version text version save to e-mail
chordsukulelecavacokeyboardtabbassdrumsharmonicsflute Guitar Pro
chords

Deus De Amor

(Hinário Adventista)

  		

1   |   |   |   |   |   |   |   |   |   |   |   |   |   |   |   |  |   |   |   |   
E |---------0---1-|-3-------5---7-|-8-------7---5-|-3------------|-3-------3---3-| 
B |-1-------------|---------------|---------------|--------------|---------------| 
G |---------------|---------------|---------------|--------------|---------------| 
D |---------------|---------------|---------------|--------------|---------------| 
A |---------------|---------------|---------------|--------------|---------------| 
E |---------------|---------------|---------------|--------------|---------------| 



6   |   |   |   |  |   |   |   |  |   |   |   |  |   |   |   |   |   |   |   |   
E |-5-------3----|-1-------0----|--------------|-0-------0-----|-----0---3---8-| 
B |--------------|--------------|-3------------|-------------3-|-1-------------| 
G |--------------|--------------|--------------|---------------|---------------| 
D |--------------|--------------|--------------|---------------|---------------| 
A |--------------|--------------|--------------|---------------|---------------| 
E |--------------|--------------|--------------|---------------|---------------| 



11  |   |   |   |   |   |   |   |  |   |   |   |   |   |   |   |   |   |   |   |  
E |-5---3---------|--------------|-3-------5---7-|-8-------------|-0------------| 
B |---------6---5-|-3------------|---------------|-------------6-|--------------| 
G |---------------|--------------|---------------|---------------|--------------| 
D |---------------|--------------|---------------|---------------|---------12---| 
A |---------------|--------------|---------------|---------------|--------------| 
E |---------------|--------------|---------------|---------------|--------------| 



16  |   |   |   |  
E |--------------| 
B |--------------| 
G |--------------| 
D |-10-----------| 
A |--------------| 
E |--------------| 
	  

Search Paypal
auto scroll beats size up size down change color hide chords drawings
tab show chords e-chords YouTube Clip e-chords hide all tabs e-chords go to top tab