Hinįrio Adventista

home > Hinįrio Adventista

Ao Deus De Abraćo Louvai Tab

Hinįrio Adventista

Difficulty: nolevelnolevel

by HELON

tuner correct add songbook print version text version save to e-mail
chordsukulelecavacokeyboardtabbassdrumsharmonicsflute Guitar Pro
chords

Ao Deus De Abraćo Louvai

(Hinįrio Adventista)

  		



1   |   |   |   |   |   |   |   |    |   |   |   |   |   |   |   |    
E |---------------|-0--------------|-7-------------|-----7---8---10-| 
B |-------------0-|-----7---8---10-|-------------8-|-10-------------| 
G |---------------|----------------|---------------|----------------| 
D |---------------|----------------|---------------|----------------| 
A |---------------|----------------|---------------|----------------| 
E |---------------|----------------|---------------|----------------| 



5   |   |   |   |   |   |   |   |   |   |   |   |   |   |   |   |  |   |   |   |   
E |-7-------------|---------7---8-|-10----------8-|-7------------|---------------| 
B |-------------7-|-8---10--------|-----7---8-----|---------10---|-8-----------8-| 
G |---------------|---------------|---------------|--------------|---------------| 
D |---------------|---------------|---------------|--------------|---------------| 
A |---------------|---------------|---------------|--------------|---------------| 
E |---------------|---------------|---------------|--------------|---------------| 



10  |   |   |   |   |   |   |   |     |   |   |   |   |   |   |   |   
E |-7---7---7---7-|-----------------|-0-----5-7-----|---------------| 
B |---------------|-10----------8-7-|---7-8-------5-|-4-------------| 
G |---------------|-----------------|---------------|-------------4-| 
D |---------------|-----------------|---------------|---------------| 
A |---------------|-----------------|---------------|---------------| 
E |---------------|-----------------|---------------|---------------| 



14  |   |   |   |   |   |   |   |     |   |   |   |  |   |   |   |  
E |-------------5-|-7---5-7-8---7-5-|-3-------2----|-0------------| 
B |-5---7---8-----|-----------------|--------------|--------------| 
G |---------------|-----------------|--------------|--------------| 
D |---------------|-----------------|--------------|--------------| 
A |---------------|-----------------|--------------|--------------| 
E |---------------|-----------------|--------------|--------------| 
	  

Search Paypal
auto scroll beats size up size down change color hide chords drawings
tab show chords e-chords YouTube Clip e-chords hide all tabs e-chords go to top tab