Hinário Adventista

Ao Coro Dos Arcanjos Tab

Hinário Adventista

Difficulty: nolevelnolevel

by HELON

tuner correct add songbook print version text version save to e-mail
chordsukuleleukulelecavacokeyboardtabbassdrumsharmonicsflute Guitar Pro
close

there isn't a video lesson for this song

chords

Ao Coro Dos Arcanjos

(Hinário Adventista)

  		 



1   |   |   |   |   |   |   |   |   |   |   |   |    
E |-----------------------------0----8-------0-----| 
B |----------------------1--1-----8-----8--------1-| 
G |------------------------------------------------| 
D |------------------------------------------------| 
A |------------------------------------------------| 
E |------------------------------------------------| 



2   |   |   |   |   |   |   |   |   |   |   |   |    
E |-1---1-1-3-1-0---------------0----8-------0-----| 
B |----------------------1--1-----8-----8--------1-| 
G |------------------------------------------------| 
D |------------------------------------------------| 
A |------------------------------------------------| 
E |------------------------------------------------| 



3   |   |   |   |   |   |   |   |   |   |   |   |    
E |---------0------------0--1---0---0-1-3----0---8-| 
B |-3---3-3---3-1-----------------3----------------| 
G |------------------------------------------------| 
D |------------------------------------------------| 
A |------------------------------------------------| 
E |------------------------------------------------| 



4   |   |   |   |   |   |   |   |   |   |   |   |    
E |-8-7-5-5-3-2-3---------------0----8--8---5----5-| 
B |----------------------1--1-----8-----------6----| 
G |------------------------------------------------| 
D |------------------------------------------------| 
A |------------------------------------------------| 
E |------------------------------------------------| 



5   |   |   |    |   |   |   |   |   |   |   |   |  
E |---5-----0-------------------------------------| 
B |-8---8-6---------------------------------------| 
G |-----------------------------------------------| 
D |-----------12-10-------------------------------| 
A |-----------------------------------------------| 
E |-----------------------------------------------| 
	  

auto scroll beats size up size down change color hide chords drawings
tab show chords e-chords YouTube Clip e-chords hide all tabs e-chords go to top tab

share with facebook

Search Paypal