HIM

home > HIM

The Kiss Of Dawn Tab

HIM

Difficulty: ExpertExpert

by Indestructible

tuner correct add songbook print version text version save to e-mail
chordsukulelecavacokeyboardtabbassdrumsharmonicsflute Guitar Pro
chords

The Kiss Of Dawn

  		     Intro 
E-------5-----------1---------------------| 
B-----0---0-------3-----------------------| 
G-3-3-------3---4-------------------------| 
D-------------5-------2-2-2-3-3-3-4-4-4-4-| 
A---------------------2-2-2-1-1-1-4-4-4-4-| 
E---------------------0-0-0-------2-2-2-2-| 

     Verse 
E---------------------------------| 
B---------------------------------| 
G---------------------------------| 
D-------------------------6-5-----| 
A-0----2------2---2-1---4-----4---| 
E-0-0--2-2--1-2-3-2-1-2---------3-| 

     Bridge 
E-------------------------------------| 
B-------------------------------------| 
G-------------------------------------| 
D-----------3-3-3---------------------| 
A-2-2-2-2-2-3-3-3-------0-0-0-2-2-2-2-| 
E-0-2-------1-1-1-3-3-3-------0-0-0-0-| 

     Chorus 
E-----------------------------------| 
B-----------------------------------| 
G---------------2-2-2---------------| 
D-2-2-2---------0-0-0-4-4-4-4-------| 
A-2-2-2-3-3-3-3-0-0-0-4-4-4-4-2-2-2-| 
E-0-0-0-3-3-3-3-------2-2-2-2-0-0-0-| 
	  

Search Paypal
auto scroll beats size up size down change color hide chords drawings
tab show chords e-chords YouTube Clip e-chords hide all tabs e-chords go to top tab