HIM

home > HIM

I Will Be The End Of You Tab

HIM

Difficulty: nolevelnolevel

by tamamoreira

tuner correct add songbook print version text version save to e-mail
chordsukulelecavacokeyboardtabbassdrumsharmonicsflute Guitar Pro
chords

I Will Be The End Of You

  		First tab, please rate. Thanks. 



Intro 

|-------------|----------------|-------------|-------------| 
|-------------|----------------|-------------|-------------| 
|-------------|----------------|-------------|-------------| 
|-------------|----------------|-------------|-------------| 
|---------8-7-|----------------|---------8-7-|-------------| 
|-0-10-12-----|10-12-10-5-7-10-|-0-10-12-----|10-12-10-5-7-| 

|-------------|----------------|-------------|-------------| 
|-------------|----------------|-------------|-------------| 
|-------------|----------------|-------------|-------------| 
|-------------|----------------|-------------|-------------| 
|---------8-7-|----------------|---------8-7-|-------------| 
|-0-10-12-----|10-12-10-5-7-10-|-0-10-12-----|10-12-10-5-7-| 

|-------------|----------------|-------------|-------------| 
|-------------|----------------|-------------|-------------| 
|-------------|----------------|-------------|-------------| 
|-------------|----------------|-------------|-------------| 
|---------8-7-|----------------|---------8-7-|-------------| 
|-0-10-12-----|10-12-10-5-7-10-|-0-10-12-----|10-12-10-5-7-| 

|-------------|----------------|-------------|-------------| 
|-------------|----------------|-------------|-------------| 
|-------------|----------------|-------------|-------------| 
|-------------|----------------|-------------|-------------| 
|---------8-7-|----------------|---------8-7-|-------------| 
|-0-10-12-----|10-12-10-5-7-10-|-0-10-12-----|10-12-10-5-7-| 

verse 1 

|-------------------------|-------------------------|---------|---------| 
|-------------------------|-------------------------|---------|---------| 
|-------------------------|-------------------------|---------|---------| 
|-12-12-12-12-12-10-10-10-|-10-12-12-12-12-10-10-10-|-8----8x-|-8---7---| 
|-12-12-12-12-12-10-10-10-|-10-12-12-12-12-10-10-10-|-8----8x-|-8---7---| 
|-12-12-12-12-12-10-10-10-|-10-12-12-12-12-10-10-10-|-8----8x-|-8---7---| 

  Cold, underneath the starry night 

|-----------------|-----------------|----------|---------| 
|-----------------|-----------------|----------|---------| 
|-----------------|-----------------|----------|---------| 
|-3-5-5-5-5-3-3-3-|-3-5-5-5-5-3-3-3-|-12---12x-|-10---10-| 
|-3-5-5-5-5-3-3-3-|-3-5-5-5-5-3-3-3-|-12---12x-|-10---10-| 
|-3-5-5-5-5-3-3-3-|-3-5-5-5-5-3-3-3-|-12---12x-|-10---10-| 

  Breathing in everything but air 

|-------------|----------------|---------|---------| 
|-------------|----------------|---------|---------| 
|-------------|----------------|---------|---------| 
|-------------|----------------|-8----8x-|-8---7---| 
|---------8-7-|----------------|-8----8x-|-8---7---| 
|-0-10-12-----|10-12-10-5-7-10-|-8----8x-|-8---7---| 

  See as the fiery lights  

|-----------------|-----------------|---------------|-------------| 
|-----------------|-----------------|---------------|-------------| 
|-----------------|-----------------|---------------|-------------| 
|-5-5-5-5-5-3-3-3-|-7-7-7-7-7-3-3-3-|-8-8-8-8-8-8-8-|-x-x-x-x-x-x-| 
|-5-5-5-5-5-3-3-3-|-7-7-7-7-7-3-3-3-|-8-8-8-8-8-8-8-|-x-x-x-x-x-x-| 
|-5-5-5-5-5-3-3-3-|-7-7-7-7-7-3-3-3-|-8-8-8-8-8-8-8-|-x-x-x-x-x-x-| 

  Dies in your eyes on your leaving 

Chorus 1 

|-----------------|-----------------|-----------------|-----------------| 
|-----------------|-----------------|-----------------|-----------------| 
|-----------------|-----------------|-----------------|-----------------| 
|-8-8-8-8-8-8-8-8-|-5-5-5-5-5-5-5-5-|-0-0-0-0-0-0-0-0-|-3-3-3-3-3-3-3-3-| 
|-8-8-8-8-8-8-8-8-|-5-5-5-5-5-5-5-5-|-0-0-0-0-0-0-0-0-|-3-3-3-3-3-3-3-3-| 
|-8-8-8-8-8-8-8-8-|-5-5-5-5-5-5-5-5-|-0-0-0-0-0-0-0-0-|-3-3-3-3-3-3-3-3-| 

  Love's screaming, "I will be the end of you." 

|-----------------|-----------------|-----------------|-----------------| 
|-----------------|-----------------|-----------------|-----------------| 
|-----------------|-----------------|-----------------|-----------------| 
|-8-8-8-8-8-8-8-8-|-5-5-5-5-5-5-5-5-|-0-0-0-0-0-0-0-0-|-3-3-3-3-3-3-3-3-| 
|-8-8-8-8-8-8-8-8-|-5-5-5-5-5-5-5-5-|-0-0-0-0-0-0-0-0-|-3-3-3-3-3-3-3-3-| 
|-8-8-8-8-8-8-8-8-|-5-5-5-5-5-5-5-5-|-0-0-0-0-0-0-0-0-|-3-3-3-3-3-3-3-3-| 

  And I'm pleading, "Don't you stop now. 

|----------|----------|----------|----------| 
|----------|----------|----------|----------| 
|--------2-|--------2-|--------2-|--------2-| 
|----0-3---|----0-3---|----0-3---|----0-3---| 
|--1-------|----------|----------|----------| 
|----------|--5-------|--0-------|--3-------| 

  Go on and tear me apart, show me all you have got and I will be 

|----------|----------| 
|----------|----------| 
|--------2-|--------2-| 
|----0-3---|----0-3---| 
|--1-------|----------| 
|----------|--5-------| 

  So free." 

|-------------|----------------|-------------|-------------| 
|-------------|----------------|-------------|-------------| 
|-------------|----------------|-------------|-------------| 
|-------------|----------------|-------------|-------------| 
|---------8-7-|----------------|---------8-7-|-------------| 
|-0-10-12-----|10-12-10-5-7-10-|-0-10-12-----|10-12-10-5-7-| 

|-------------|----------------|-------------|-------------| 
|-------------|----------------|-------------|-------------| 
|-------------|----------------|-------------|-------------| 
|-------------|----------------|-------------|-------------| 
|---------8-7-|----------------|---------8-7-|-------------| 
|-0-10-12-----|10-12-10-5-7-10-|-0-10-12-----|10-12-10-5-7-| 

verse 2 

|-------------------------|-------------------------|---------|---------| 
|-------------------------|-------------------------|---------|---------| 
|-------------------------|-------------------------|---------|---------| 
|-12-12-12-12-12-10-10-10-|-10-12-12-12-12-10-10-10-|-8----8x-|-8---7---| 
|-12-12-12-12-12-10-10-10-|-10-12-12-12-12-10-10-10-|-8----8x-|-8---7---| 
|-12-12-12-12-12-10-10-10-|-10-12-12-12-12-10-10-10-|-8----8x-|-8---7---| 

  Hear the cries of the stormy skies 

|-----------------|-----------------|----------|---------| 
|-----------------|-----------------|----------|---------| 
|-----------------|-----------------|----------|---------| 
|-3-5-5-5-5-3-3-3-|-3-5-5-5-5-3-3-3-|-12---12x-|-10---10-| 
|-3-5-5-5-5-3-3-3-|-3-5-5-5-5-3-3-3-|-12---12x-|-10---10-| 
|-3-5-5-5-5-3-3-3-|-3-5-5-5-5-3-3-3-|-12---12x-|-10---10-| 

  Letting go of all that she has held in 

|-------------|----------------|---------|---------| 
|-------------|----------------|---------|---------| 
|-------------|----------------|---------|---------| 
|-------------|----------------|-8----8x-|-8---7---| 
|---------8-7-|----------------|-8----8x-|-8---7---| 
|-0-10-12-----|10-12-10-5-7-10-|-8----8x-|-8---7---| 

  Waiting for that shadow to smile 

|-----------------|-----------------|---------------|-------------| 
|-----------------|-----------------|---------------|-------------| 
|-----------------|-----------------|---------------|-------------| 
|-5-5-5-5-5-3-3-3-|-7-7-7-7-7-3-3-3-|-8-8-8-8-8-8-8-|-x-x-x-x-x-x-| 
|-5-5-5-5-5-3-3-3-|-7-7-7-7-7-3-3-3-|-8-8-8-8-8-8-8-|-x-x-x-x-x-x-| 
|-5-5-5-5-5-3-3-3-|-7-7-7-7-7-3-3-3-|-8-8-8-8-8-8-8-|-x-x-x-x-x-x-| 

  And realize you’re nowhere near me 

Chorus 2 

|-----------------|-----------------|-----------------|-----------------| 
|-----------------|-----------------|-----------------|-----------------| 
|-----------------|-----------------|-----------------|-----------------| 
|-8-8-8-8-8-8-8-8-|-5-5-5-5-5-5-5-5-|-0-0-0-0-0-0-0-0-|-3-3-3-3-3-3-3-3-| 
|-8-8-8-8-8-8-8-8-|-5-5-5-5-5-5-5-5-|-0-0-0-0-0-0-0-0-|-3-3-3-3-3-3-3-3-| 
|-8-8-8-8-8-8-8-8-|-5-5-5-5-5-5-5-5-|-0-0-0-0-0-0-0-0-|-3-3-3-3-3-3-3-3-| 

  Love's screaming, "I will be the end of you." 

|-----------------|-----------------|-----------------|-----------------| 
|-----------------|-----------------|-----------------|-----------------| 
|-----------------|-----------------|-----------------|-----------------| 
|-8-8-8-8-8-8-8-8-|-5-5-5-5-5-5-5-5-|-0-0-0-0-0-0-0-0-|-3-3-3-3-3-3-3-3-| 
|-8-8-8-8-8-8-8-8-|-5-5-5-5-5-5-5-5-|-0-0-0-0-0-0-0-0-|-3-3-3-3-3-3-3-3-| 
|-8-8-8-8-8-8-8-8-|-5-5-5-5-5-5-5-5-|-0-0-0-0-0-0-0-0-|-3-3-3-3-3-3-3-3-| 

  And I'm pleading, "Don't you stop now. 

|----------|----------|----------|----------| 
|----------|----------|----------|----------| 
|--------2-|--------2-|--------2-|--------2-| 
|----0-3---|----0-3---|----0-3---|----0-3---| 
|--1-------|----------|----------|----------| 
|----------|--5-------|--0-------|--3-------| 

  Go on and tear me apart, show me all you have got and I will be 

|----------|----------|-----------------|-------------------------| 
|----------|----------|-----------------|-------------------------| 
|--------2-|--------2-|-----------------|-------------------------| 
|----0-3---|----0-3---|-3-3-3-3-3-3-3-3-|-10-10-10-10-10-10-10-10-| 
|--1-------|----------|-3-3-3-3-3-3-3-3-|-10-10-10-10-10-10-10-10-| 
|----------|--5-------|-3-3-3-3-3-3-3-3-|-10-10-10-10-10-10-10-10-| 

  So free from all that has been." 

Bridge 

|---------|---------|---------|---------| 
|---------|---------|---------|---------| 
|---------|---------|---------|---------| 
|---------|---------|---------|---------| 
|---------|---------|---------|---------| 
|-0-7-5-7-|-0-7-5-7-|-0-7-5-7-|-8-7-5-3-| 

|---------|---------|---------|----------| 
|---------|---------|---------|----------| 
|---------|---------|---------|----------| 
|---------|---------|---------|----------| 
|---------|---------|---------|----------| 
|-0-7-5-7-|-0-7-5-7-|-0-7-5-7-|-3-2-0-10-| 

|---------|---------|---------|---------| 
|---------|---------|---------|---------| 
|---------|---------|---------|---------| 
|-0-7-5-7-|-0-7-5-7-|-0-7-5-7-|-8-7-5-3-| 
|-0-7-5-7-|-0-7-5-7-|-0-7-5-7-|-8-7-5-3-| 
|-0-7-5-7-|-0-7-5-7-|-0-7-5-7-|-8-7-5-3-| 

|---------|---------|---------|----------| 
|---------|---------|---------|----------| 
|---------|---------|---------|----------| 
|-0-7-5-7-|-0-7-5-7-|-0-7-5-7-|-3-2-0-10-| 
|-0-7-5-7-|-0-7-5-7-|-0-7-5-7-|-3-2-0-10-| 
|-0-7-5-7-|-0-7-5-7-|-0-7-5-7-|-3-2-0-10-| 

|-------------| 
|-------------| 
|-------------| 
|-3-2-0-10----| 
|-3-2-0-10----| 
|-3-2-0-10----| 

Chorus 3 

|-----------------|-----------------|-----------------|-----------------| 
|-----------------|-----------------|-----------------|-----------------| 
|-----------------|-----------------|-----------------|-----------------| 
|-8-8-8-8-8-8-8-8-|-5-5-5-5-5-5-5-5-|-0-0-0-0-0-0-0-0-|-3-3-3-3-3-3-3-3-| 
|-8-8-8-8-8-8-8-8-|-5-5-5-5-5-5-5-5-|-0-0-0-0-0-0-0-0-|-3-3-3-3-3-3-3-3-| 
|-8-8-8-8-8-8-8-8-|-5-5-5-5-5-5-5-5-|-0-0-0-0-0-0-0-0-|-3-3-3-3-3-3-3-3-| 

  Love's screaming, "I will be the end of you." 

|-----------------|-----------------|-----------------|-----------------| 
|-----------------|-----------------|-----------------|-----------------| 
|-----------------|-----------------|-----------------|-----------------| 
|-8-8-8-8-8-8-8-8-|-5-5-5-5-5-5-5-5-|-0-0-0-0-0-0-0-0-|-3-3-3-3-3-3-3-3-| 
|-8-8-8-8-8-8-8-8-|-5-5-5-5-5-5-5-5-|-0-0-0-0-0-0-0-0-|-3-3-3-3-3-3-3-3-| 
|-8-8-8-8-8-8-8-8-|-5-5-5-5-5-5-5-5-|-0-0-0-0-0-0-0-0-|-3-3-3-3-3-3-3-3-| 

  And I'm pleading, "Don't you stop now. 

|----------|----------|----------|----------| 
|----------|----------|----------|----------| 
|--------2-|--------2-|--------2-|--------2-| 
|----0-3---|----0-3---|----0-3---|----0-3---| 
|--1-------|----------|----------|----------| 
|----------|--5-------|--0-------|--3-------| 

  Go on and tear me apart, show me all you have got; we will be 

|----------|----------|-----------------|-------------------------| 
|----------|----------|-----------------|-------------------------| 
|--------2-|--------2-|-----------------|-------------------------| 
|----0-3---|----0-3---|-3-3-3-3-3-3-3-3-|-10-10-10-10-10-10-10-10-| 
|--1-------|----------|-3-3-3-3-3-3-3-3-|-10-10-10-10-10-10-10-10-| 
|----------|--5-------|-3-3-3-3-3-3-3-3-|-10-10-10-10-10-10-10-10-| 

  So free from all that has been. 

|-----------------|-----------------|-----------------|-------------------------| 
|-----------------|-----------------|-----------------|-------------------------| 
|-----------------|-----------------|-----------------|-------------------------| 
|-8-8-8-8-8-8-8-8-|-5-5-5-5-5-5-5-5-|-3-3-3-3-3-3-3-3-|-10-10-10-10-10-10-10-10-| 
|-8-8-8-8-8-8-8-8-|-5-5-5-5-5-5-5-5-|-3-3-3-3-3-3-3-3-|-10-10-10-10-10-10-10-10-| 
|-8-8-8-8-8-8-8-8-|-5-5-5-5-5-5-5-5-|-3-3-3-3-3-3-3-3-|-10-10-10-10-10-10-10-10-| 

  So free from all that we've seen. 

|-----------------|-----------------|----------| 
|-----------------|-----------------|----------| 
|-----------------|-----------------|----------| 
|-8-8-8-8-8-8-8-8-|-5-5-5-5-5-5-5-5-|-0-0-0-0x-| 
|-8-8-8-8-8-8-8-8-|-5-5-5-5-5-5-5-5-|-0-0-0-0x-| 
|-8-8-8-8-8-8-8-8-|-5-5-5-5-5-5-5-5-|-0-0-0-0x-| 

  So free." 

Outro 

|-------------|-----------|-----------|-----------|-----------| 
|-------------|-----------|-----------|-----------|-----------| 
|-------------|-----------|-----------|-----------|-----------| 
|-------------|-----------|-----------|-----------|-----------| 
|---------8-7-|-------8-7-|-------8-7-|-------8-7-|-----------| 
|-0-10-12-----|-10-12-----|-10-12-----|-10-12-----|-10-12-5-7-| 

|-------------|-----------|-----------|-----------|-------------| 
|-------------|-----------|-----------|-----------|-------------| 
|-------------|-----------|-----------|-----------|-------------| 
|-------------|-----------|-----------|-----------|-----------0-| 
|---------8-7-|-------8-7-|-------8-7-|-------8-7-|-----------0-| 
|-0-10-12-----|-10-12-----|-10-12-----|-10-12-----|-10-12-5-7-0-| 

Don't do drugs. 
	  

Search Paypal
auto scroll beats size up size down change color hide chords drawings
tab show chords e-chords YouTube Clip e-chords hide all tabs e-chords go to top tab