HIM

home > HIM

And Love Said No (ver. 3) Tab

HIM

Difficulty: nolevelnolevel

by raaaa

tuner correct add songbook print version text version save to e-mail
chordsukulelecavacokeyboardtabbassdrumsharmonicsflute Guitar Pro
chords

And Love Said No (ver. 3)

  		e |------3-----0-----2----------0---  
B |----3---0-----0-----0---3p0----3- 
G |--0-------0-----0-----0----0----- 
D |--------------------------------- 
A |--------------------------------- 
E |--------------------------------- 
 
 
e |------------------------------------- 
B |------------------------------------- 
G |-----------------777777755555-------- 
D |------------22222777777755555555444-- 
A |------------22222555555533333555444-- 
E |--2h3-3vv---00000------------333222-- 
 

	  

Search Paypal
auto scroll beats size up size down change color hide chords drawings
tab show chords e-chords YouTube Clip e-chords hide all tabs e-chords go to top tab