Hillsong

home > Hillsong

You alone are God Tab

Hillsong

Difficulty: EasyEasy

by a%2Ec%2Er%2E

tuner correct add songbook print version text version save to e-mail
chordsukulelecavacokeyboardtabbassdrumsharmonicsflute Guitar Pro
chords

You alone are God

Year: 2006 - Album: Mighty to Save

  		You Alone Are God 

Intro & Verse 1 without bass 

PreChorus: 
      F                                                          C/E 
g------------------------------|------------------------------|------------------------------|------------------------------| 
d-------------10-10-10--9--7---|-------------10-10-10--9--7---|-------------10-10-10--9--7---|-------------10-10-10--9--7---| 
a---8--8--8--------------------|---8--8--8--------------------|---7--7--7--------------------|---7--7--7--------------------| 
e------------------------------|------------------------------|------------------------------|------------------------------| 
sing my soul…                                                … love… 

    F                                                           G 
g------------------------------|------------------------------|------------------------------|------------------------------| 
d-------------10-10-10--9--7---|-------------10-10-10--9--7---|-------------10-10-10--9--7---|-------------10-10-10--9--7---| 
a---8--8--8--------------------|---8--8--8--------------------|---10-10-10-------------------|---10-10-10-------------------| 
e------------------------------|------------------------------|------------------------------|------------------------------| 
… soul…                                                       … alone… 

Intro 
  C                                                              F 
g------------------------------|------------------------------|------------------------------|------------------------------| 
d------------------------------|------------------------------|------------------------------|------------------------------| 
a------------------------------|------------------------------|---8--8--x--8--x--8--x--8-----|---8--8--x--8--x--8--x--8-----| 
e---8--8--x--8--x--8--x--8-----|---8--8--x--8--x--8--x--8-----|------------------------------|------------------------------| 

Verse 2: 
    C                                                            F 
g------------------------------|------------------------------|------------------------------|------------------------------| 
d------------------------------|------------------------------|------------------------------|------------------------------| 
a------------------------------|------------------------------|---8--8--x--8--x--8--x--8-----|---8--8--x--8--x--8--x--8-----| 
e---8--8--x--8--x--8--x--8-----|---8--8--x--8--x--8--x--8-----|------------------------------|------------------------------| 
I will meet…                                                 …surrender… 

    C                                                            F/A 
g------------------------------|------------------------------|------------------------------|------------------------------| 
d------------------------------|------------------------------|---/7--7--7--7--7--7--7--7----|----7--7--7--7--7--7--7--7----| 
a------------------------------|------------------------------|------------------------------|------------------------------| 
e---6--6--x--8--x--8--x--8-----|---8--8--x--8--x--8--x--8-----|------------------------------|------------------------------| 
… world…                                                       …grace… 

Chorus 
    F                              G                             F                             C/E 
g------------------------------|------------------------------|------------------------------|------------------------------| 
d------------------------------|------------------------------|------------------------------|------------------------------| 
a---8--8--8--8--8--8--8--8-----|---10-10-10-10-10-10-10-10----|---8--8--8--8--8--8--8--8-----|---7--7--7--7--7--7--7--7-----| 
e------------------------------|------------------------------|------------------------------|------------------------------| 
You alone                 are     God                   You   alone                      are   God                       We 

    Am                            F                               G 
g------------------------------|------------------------------|------------------------------| 
d---7--7--7--7--7--7--7--7-----|------------------------------|------------------------------|     x2 
a------------------------------|---8--8--8--8--8--8--8--8-----|---10-10-10-10-10-10-10-10----| 
e------------------------------|------------------------------|------------------------------| 
declare                    the  glory                 of Your   name 

Intro/Bridge: 
   Am                             F                               C                            G/B 
g------------------------------|------------------------------|------------------------------|------------------------------| 
d---7--7--7--7--7--7--7--7-----|------------------------------|------------------------------|------------------------------| 
a------------------------------|---8--8--8--8--8--8--8--8-----|------------------------------|------------------------------| 
e------------------------------|------------------------------|---8--8--8--8--8--8--8--8-----|---7--7--7--7--7--7--7--7-----| 
(Reign in all the                  earth…                     …earth                          Jesus 

just listen to the CD to figure out 

if you spotted any mistakes I would be happy if you could contact me at [email protected] 
God bless you all! 

	  

Full key step upFull key step up
Half key step upHalf key step up
Half key step downHalf key step down
Full key step downFull key step down
Search Paypal
auto scroll beats size up size down change color hide chords drawings
tab show chords e-chords YouTube Clip e-chords hide all tabs e-chords go to top tab