Hillsong

home > Hillsong

What the World Will Never Take (God He Reigns) Tab

Hillsong

Difficulty: IntermediateIntermediate

by l1lkrnboy

tuner correct add songbook print version text version save to e-mail
chordsukulelecavacokeyboardtabbassdrumsharmonicsflute Guitar Pro
chords

What the World Will Never Take (God He Reigns)

  		Tabs: 
---------------12----12----12---------- 
---------------12b14-12b14-12b14r12-10- 
--------------------------------------- 
--------------------------------------- 
-0-0-0-0-(x4)-------------------------- 
--------------------------------------- 

------------------------------12-------12- 
-----10-12-12b14b12-10--12b14----12b14---- 
-10--------------------------------------- 
------------------------------------------ 
------------------------------------------ 
------------------------------------------ 

----------------------------- 
-14r12-10-12--------(4)------ 
-----------------(4)--------- 
--------------(4)------------ 
----------------------------- 
----------------------------- 

Here's the fast part: 
----14--14h17-16b17r16p14------- 
-14-----------------------17p14- 
-------------------------------- 
-------------------------------- 
-------------------------------- 
-------------------------------- 

------------------------------ 
------------------------------ 
-17p16p14----14--------------- 
----------16-----16p14-------- 
-----------------------16----- 
--------------------------17-- 

--------------- 
--------------- 
-7-7-7-7-(x2)-- 
--------------- 
--------------- 
--------------- 

Use quick alternate picking,each note x4 
-------14-16-17-19--21-(play the last note once)- 
-12-16------------------------------------------- 
------------------------------------------------- 
------------------------------------------------- 
------------------------------------------------- 
------------------------------------------------- 


	  

Search Paypal
auto scroll beats size up size down change color hide chords drawings
tab show chords e-chords YouTube Clip e-chords hide all tabs e-chords go to top tab