Hillsong

home > Hillsong

My Redeemer Lives Tab

Hillsong

Difficulty: ExpertExpert

by rumbanjo

tuner correct add songbook print version text version save to e-mail
chordsukulelecavacokeyboardtabbassdrumsharmonicsflute Guitar Pro
chords

My Redeemer Lives

  		Intro: 
     E7              A7                           
G |---------------------------------------------  
D |---------------------------------------------  
A |----------2---2-----------4--4-4--5--7-------  
E |--0--0--0---4---4--5--5----------------------  
                                          Repeat 

Verse: 
     E7              A7 
G |--------------------------------------------- 
D |--------------------------------------------- 
A |----------2---2-----------4--4-4--5--7------- 
E |--0--0--0---4---4--5--5---------------------- 7x 

     E7              A7            
G |--------------------------------------------- 
D |--------------------------------------------- 
A |----------2---2------------------------------ 
E |--0--0--0---4---4--5--5--5--5---------------- 

Pre-Chorus: 
    B               A             B 
G |--------------------------------------------- 
D |--------------------------------------------- 
A |--------------------------------------------- 
E |-7-7-7-7-7-7-7-7-6-6-6-6--6-6--7-7----------- 

Chorus: 
     E7              A7 
G |--------------------------------------------- 
D |--------------------------------------------- 
A |----------2---2-----------4--4-4--5--7------- 
E |--0--0--0---4---4--5--5----------------------  

    C#m            B 
G |--------------------------------------------- 
D |--------------------------------------------- 
A |-4-4---4---4--------------------------------- 
E |-----4---4---4--7-7--5--5-5--4--2------------ 
                                        Repeat 

Bridge: 
    D               A/C#        
G |--------------------------------------------- 
D |--------------------------------------------- 
A |-5-5-5-5-5-5-5-5-4-4-4-4-4-4-4-4------------- 
E |--------------------------------------------- 

    E/B     F#m     E/G#   B 
G |--------------------------------------------- 
D |---------------------------------9-9-h11-9--- 
A |-2-2-2-2-----------------------9------------- 
E |---------2-2-2-2-4-4-4-4-7-7-7--------------- 


	  

Full key step upFull key step up
Half key step upHalf key step up
Half key step downHalf key step down
Full key step downFull key step down
Search Paypal
auto scroll beats size up size down change color hide chords drawings
tab show chords e-chords YouTube Clip e-chords hide all tabs e-chords go to top tab