Hillsong

home > Hillsong

Hosana Solo Dagdad Tab

Hillsong

Difficulty: ExpertExpert

by diegohp2007

tuner correct add songbook print version text version save to e-mail
chordsukulelecavacokeyboardtabbassdrumsharmonicsflute Guitar Pro
chords

Hosana Solo Dagdad

  		INTRO - HOSANNA 
HILLSONGS 
SOLO - GUITARRA 
POR - DIEGO CARVALHO  

tone-DADGAD 

  

D--------------------------------- - |------------------------------------------------------------------------------------------------| 
A-------------11---------------11 |------------------------------------------------------------------------------------------------| 
G---------9-----------9-h-11-----|-----------8-----------------8------------9----------9--------------8----------------8-----| 
D----11---------11-------------- -|------9------------9-h-11-----------9-------------------------9-----------9-h11-------| 
A-------------------------- ---- --- |-11-----------11---------------11------------11---------11----------11-----------------| 
D--------------------- --- ----- - - |------------------------------------------------------------------------------------------------| 


  

D-------------------------------------|------------------------------------------------------------------------------11-11-----14---| 
A-------------11----------------11-|-------------------------------------------------------14 ----------------11--------11-------| 
G---------9-----------9-h-11---- -|-----------8-----------------8------------9-------------------------11------------------------| 
D----11---------11-------------- --|------9------------9-h-11-----------9-------------------------9-----------------------------| 
A-------------------------- ---- ---- |-11-----------11---------------11------------11---------------------------------------------| 
D--------------------- --- ----- - -- |--------------------------------------------------------------------------------------------------| 

-after effects- passagem 
D--------------------------------9--------7----------------------------------------------------------------------------------------| 
A-----11------11------11-----------9--------7---------11---------------------------------------------------------------------| 
G---------9-------9------9--------------------------------------------------------------------------------------------------------| 
D-----------------------------------------------------------------------------------------------------------------------------------| 
A-----------------------------------------------------------------------------------------------------------------------------------| 
D-----------------------------------------------------------------------------------------------------------------------------------| 


Itapetininga -SP  
Igreja Presbiteriana de Vila Hungria 
	  

Search Paypal
auto scroll beats size up size down change color hide chords drawings
tab show chords e-chords YouTube Clip e-chords hide all tabs e-chords go to top tab