Hillsong

home > Hillsong

Adonai Tab

Hillsong

Difficulty: ExpertExpert

by l1lkrnboy

tuner correct add songbook print version text version save to e-mail
chordsukulelecavacokeyboardtabbassdrumsharmonicsflute Guitar Pro
chords

Adonai

Year: 2006 - Album: Mighty to Save

Key:  G#m More
Adonai Key D#mD#m
Adonai Key EmEm
Adonai Key FmFm
Adonai Key F#mF#m(one step down)
Adonai Key GmGm(half step down)
Adonai Key G#mG#m(original key)
Adonai Key AmAm(half step up)
Adonai Key A#mA#m(one step up)
Adonai Key BmBm
Adonai Key CmCm
Adonai Key C#mC#m
Adonai Key DmDm
  		Bass Riff 
-------------------------------- 
-------------------------------- 
-------------1------------------ 
---------2-2---2-----1-2-------- 
-----1-2---------2-2---------2-1 
-4-4---------------------2-2---- 

Guitar (before 2nd verse) 
-------------------------------- 
-12-12-11-11-12-12-------------- 
-------------------9-8---(x3)--- 
-------------------------------- 
-------------------------------- 
-------------------------------- 

-------------11-11b12r11-9------ 
-12-12-11-11---------------12--- 
-------------------------------- 
-------------------------------- 
-------------------------------- 

Instrumental 
-14-14-14-14-14-14-14-14--14--------------------- 
----------------------------11-11-11-11h12-12-12- 
------------------------------------------------- 
------------------------------------------------- 
------------------------------------------------- 
------------------------------------------------- 

------------------------------------------------- 
-------12-------12--------12------12--14----12--- 
-11h13----11h13----11h13----11h13---------------- 
------------------------------------------------- 
------------------------------------------------- 
------------------------------------------------- 

-11-------11-------11--------12-11----11-------11- 
----14-12----14-12----14--12-------12----14-12---- 
-------------------------------------------------- 
-------------------------------------------------- 
-------------------------------------------------- 
-------------------------------------------------- 

-------11-------12-11-----11------12--14-------- 
-14-12----14-12-------12----12-12---------12---- 
------------------------------------------------ 
------------------------------------------------ 
------------------------------------------------ 
------------------------------------------------ 

	  

Search Paypal
auto scroll beats size up size down change color hide chords drawings
tab show chords e-chords YouTube Clip e-chords hide all tabs e-chords go to top tab