Hillsong United

home > Hillsong United

Lead Me to the Cross Tab

Hillsong United

Difficulty: EasyEasy

by Kblovsky

tuner correct add songbook print version text version save to e-mail
chordsukulelecavacokeyboardtabbassdrumsharmonicsflute Guitar Pro
chords

Lead Me to the Cross

Year: 2007 - Album: All of the Above

  		
Música: Lead me to the cross 
Artista: Hillsong UNITED 
Album: All of the Above 

Instrumental (riff básico da música) 
----------------------14------------- 
-7-8-7-8-s12-14-12-14---------------- 
------------------------------------- 
------------------------------------- 
------------------------------------- 
------------------------------------- 

----------------------12------------- 
-7-8-7-8-s12-14-12-14-----15-s10-s7-- 
------------------------------------- 
------------------------------------- 
------------------------------------- 
------------------------------------- 

Acordes: 
Bm A G D (x2) 


Verso - use um tremolo 

Bm A Em D A (x2) 
Em A Bm A G 


Refrão 

G D A Asus4 (x3) 
Em7 G A Bm 

depois da ultima vez no Bm, toca-se essa partinha 

---------------------------------9-9-9-9-10- 
----8----8----8----8-12-12-12-12------------ 
-11---11---11---11-------------------------- 
-------------------------------------------- 
-------------------------------------------- 
--Lacy-"KBLOVSKY"-Campos--Itapetininga--SP-- 

até mais. 

KBLO ><> 

	  

Full key step upFull key step up
Half key step upHalf key step up
Half key step downHalf key step down
Full key step downFull key step down
Search Paypal
auto scroll beats size up size down change color hide chords drawings
tab show chords e-chords YouTube Clip e-chords hide all tabs e-chords go to top tab