Hillsong United

home > Hillsong United

A Reprise Tab

Hillsong United

Difficulty: nolevelnolevel

by IronPower4Ever

tuner correct add songbook print version text version save to e-mail
chordsukulelecavacokeyboardtabbassdrumsharmonicsflute Guitar Pro
chords

A Reprise

  		e|---------------------------------------------------------------------------| 
B|-------------------------8-------------------------------------------------| 
G|----9--9-------9--9--9----10-----------------------------------------------| 
D|-----10-10---10-10-10-10---------------------------------------------------| 
A|---------------------------------------------------------------------------| 
E|---------------------------------------------------------------------------| 

e|-----------------------------------------------------------------------------| 
B|---------------------------8-------------------------------------------------| 
G|----9--9-------9-------9----10-----------------------------------------------| 
D|-----10-10---10-10---10-10---------------------------------------------------| 
A|-----------------------------------------------------------------------------| 
E|-----------------------------------------------------------------------------| 

e|----------------------------7-8---8------------8---------------------------| 
B|---------------------------------------------------------------------------| 
G|----9--9-------9-------9-------10------10---10--10-------------------------| 
D|-----10-10---10-10---10-10-------------------------------------------------| 
A|---------------------------------------------------------------------------| 
E|---------------------------------------------------------------------------| 

  In my life be lifted high 
e|---------------------------------------------------------------------------| 
B|------------------------8--------------------------------------------------| 
G|----9--9-------9--9--9------10---------------------------------------------| 
D|-----10-10---10-10-10-10---------------------------------------------------| 
A|---------------------------------------------------------------------------| 
E|---------------------------------------------------------------------------| 

  In our world be lifted high 
e|--------------------------7-8----------------------------------------------| 
B|---------------------------------------------------------------------------| 
G|----9--9-------9--9--------------------------------------------------------| 
D|-----10-10---10-10-10--10--------------------------------------------------| 
A|---------------------------------------------------------------------------| 
E|---------------------------------------------------------------------------| 

  In our love be lifted high 
e|---------------------------------8---8-----8---8---------------------------| 
B|-------------------------------8-------------------------------------------| 
G|----9--9-------9-------9--9-10----------10---------------------------------| 
D|-----10-10---10-10---10-10-------------------------------------------------| 
A|---------------------------------------------------------------------------| 
E|---------------------------------------------------------------------------| 

  In my life be lifted high 
e|--------8------8------8----------------------------------------------------| 
B|---------------------------8-----------------------------------------------| 
G|----9------9------9---------10---------------------------------------------| 
D|-----10-----10-----10------------------------------------------------------| 
A|---------------------------------------------------------------------------| 
E|---------------------------------------------------------------------------| 

  In our world be lifted high 
e|--------8-------------8-7--------------------------------------------------| 
B|-------------------------8-------------------------------------------------| 
G|----9----------------------------------------------------------------------| 
D|-----10-------10-----------------------------------------------------------| 
A|---------------------------------------------------------------------------| 
E|---------------------------------------------------------------------------| 

  In our love be lifted high 
e|--------8------8------8-----8--8--8----------------------------------------| 
B|-----------------------8---------------------------------------------------| 
G|----9------9------9-----9-10-10-10-----------------------------------------| 
D|-----10-----10-----10------------------------------------------------------| 
A|---------------------------------------------------------------------------| 
E|---------------------------------------------------------------------------| 
	  

Search Paypal
auto scroll beats size up size down change color hide chords drawings
tab show chords e-chords YouTube Clip e-chords hide all tabs e-chords go to top tab