Hillsong London

home > Hillsong London

Lord Of All Tab

Hillsong London

Difficulty: ExpertExpert

by jimiw

tuner correct add songbook print version text version save to e-mail
chordsukulelecavacokeyboardtabbassdrumsharmonicsflute Guitar Pro
chords

Lord Of All

Year: 2006 - Album: Jesus Is

  		I'm pretty sure this is the correct tab for the intro. It is easy enough to learn. 
G:------------------------------------------------- 
D:------------------1-3--------------------------- 
A:----------1-3-----------1-3------------------- 
E:-1-1------------------------------------------- 
(repeat x3) 
 
G:------------------1------------------------------ 
D:----------------------3--1--3------------------ 
A:---------1-3------------------------------------ 
E:-1-1-------------------------------------------- 

	  

Search Paypal
auto scroll beats size up size down change color hide chords drawings
tab show chords e-chords YouTube Clip e-chords hide all tabs e-chords go to top tab