Heloisa Rosa

Há Um Lugar - Completo

Heloisa Rosa

tabs Beginner beginner

by  CBJCHAMPIGNON

save to print version add songbook text version e-mail correct tuner
chordsukulelecavacokeyboardtabbassdrumsharmonicaflute Guitar Pro
close

there isn't a video lesson for this song

chords

Há Um Lugar - Completo

	  		Intro: C   G   3X  


    C                      G 
  
e|-------------------------------------------------------| 
B|------8---8--------7-----------------------------------| 
G|--7/9---9---(9)--7-------------7-----------7-----------| 
D|-------------------------7-7h9---9---7-7h9---9---------| 
A|-------------------------------------------------------| 
E|-------------------------------------------------------| 


e|-------------------------------------------------------| 
B|------8---8------8-8-7-7-------------------------------| 
G|--7/9---9---(9)--9-9-7-7----------7h9-7h9-7--9h7-------| 
D|--------------------------7-7h9------------------9-----| 
A|-------------------------------------------------------| 
E|-------------------------------------------------------| 

*(9) pra tocar bem leve, pra sair bem baixinho. 


        C  
Há um lugar de descanso em ti  

        G                                
Há um lugar de refrigério em ti  


        C              D   Bm  Em7       C          G  
Há um lugar onde a verdade reina, esse lugar é no Senhor  


(obs.: não é igual o solinho da introdução. Algumas coisas mudam) 

	 
e|---------------------------------------------------------| 
B|------8---8--------7-------------------------------------| 
G|--7/9---9--------7-------------7-----------9h7-7---------| 
D|-------------------------7-7h9---9---7-7h9---------------| 
A|---------------------------------------------------------| 
E|---------------------------------------------------------| 


e|---------------------------------------------------------| 
B|------8---8------8-8-7-7---------------------------------| 
G|--7/9---9---9----9-9-7-7----------7h9-7h9-7----7h9-7-----| 
D|--------------------------7-7h9--------------9-------9-9-| 
A|---------------------------------------------------------| 
E|---------------------------------------------------------| 



        C      
Há um lugar onde as pessoas não me influênciam  

        G  
Há um lugar onde eu ouço teu espírito  

        C         D       Bm    Em7             C         G  
Há um lugar de vitória em meio à guerra, esse lugar é no Senhor  


                   C  
Esse lugar é no Senhor  
                   G  
Esse lugar é no Senhor  
                   C  
Esse lugar é no Senhor  
                   G  
Esse lugar é no Senhor  


*Tem esse solinho 
      C                 G 
e|-----------------------------------------------| 
B|----/12~----\5~------/12~-----\3~--------------| 
G|-----------------------------------------------|  2x 
D|-----------------------------------------------| 
A|-----------------------------------------------| 
E|-----------------------------------------------| 


        C  
Há um lugar onde a inconstância não me domina  
   
        G                                   
Há um lugar onde minha fé é fortalecida  

        C           D    Bm     Em7           C           G  
Há um lugar onde a paz é quem governa, esse lugar é no Senhor  

        C  
Há um lugar onde os sonhos não se abortam  

        G  
Há um lugar onde o temor não me enrijece  

        C                  D       Bm     Em7          C           G  
Há um lugar que quando se perde é que se ganha, esse lugar é no Senhor  



Refrão COM SOLINHO 2X 



Solo: C   G        C   G 

(obs: Esse solo não tá bom. Me perdi um pouco na música, porque parece 
que é feito o outro solinho do Refrão junto. Mas quem escutar vai entender)  

e|----------------------------|-----------------------------| 
B|--8h10/12~12---10\8-10h8**--|-----/12~~~~-----------------| 
G|----------------------------|-----------------------------| 
D|----------------------------|-----------------------------| 
A|----------------------------|-----------------------------| 
E|----------------------------|-----------------------------| 
diversas vezes                      no final do solo 
** segura nessa casa 


Jesus 
           
     C  
Tu és tudo o que eu preciso, Jesus!  
     G                               
Tu és tudo o que eu preciso, Jesus!  
     C                                           G  
Tu és tudo o que eu preciso, Jesus!               



(SOLINHO FINAL - VIOLÃO, DEPOIS DO SOLO) 

e|---------------------------------------------------------| 
B|------8---8-----7--7-------------------------------------| 
G|--7/9---9-----7--7----------7-------------9h7-7----------| 
D|-----------------------7-7h9-7h9---7-7h9-----------------| 
A|---------------------------------------------------------| 
E|---------------------------------------------------------| 


e|---------------------------------------------------------| 
B|------8---8---------8--8h10--10/12--10--7h8h7------------| 
G|--7/9---9---(9)--(9)--------------------------7----------| 
D|-------------------------------------------------9--7----| 
A|---------------------------------------------------------| 
E|---------------------------------------------------------| 
*(9) pra tocar bem leve, pra sair bem baixinho. 
As duas últimas notas (9 e 7) é bem baixo o som. 



Pessoal, o intuito de tirar essa música, é pra quem gosta de Heloisa 
Rosa, tocar ela mais original. Mas tudo faço para Deus. 
Quero oferecer ao min. de Louvor Olhos de Kirios. 
Que Deus abençoe a todos. 

[email protected] 
		  

Full key step upFull key step up
Half key step upHalf key step up
Half key step downHalf key step down
Full key step downFull key step down
hide glossary

See also:

tabs Lázaro - Meu Mestre tabs Atmosfera de Adoração - Agnus Dei(Solo) tabs Oficina G3 - Espelhos Magicos (solo) tabs Diante do Trono - Seja o centro tabs Atmosfera de Adoração - Aleluia tabs Fernandinho - Caia Fogo
e-chords

Other versions:

tabs Heloisa Rosa - Há Um Lugar - Completo
auto scroll beats size up size down change color hide chords drawings
tab show chords e-chords YouTube Clip e-chords hide all tabs e-chords go to top tab

share