Helloween

home > Helloween

Mission motherland Tab

Helloween

Difficulty: nolevelnolevel

tuner correct add songbook print version text version save to e-mail
chordsukulelecavacokeyboardtabbassdrumsharmonicsflute Guitar Pro
chords

Mission motherland

Year: 1996 - Album: The Time of the Oath

  		 
Distorção 
Intro 
Eb------------------------------------------------- 
Bb------------------------------------------------- 
Gb-7-----------9-----7----2-4----9-----5----7------ 
Db-7-----------9-----7----2-4----9-----5----7------ 
Ab-5-----------7-----5----0-2----7-----3----5------ 
Eb------------------------------------------------- 
 
Riff 1 
Fazer 2 vezes ate ## 
|-------------------------------------------------- 
|-------------------------------------------------- 
|-------------------------------------------------- 
|--------------------------9-7--------------------- 
|--------------------------7-5--------------------- 
|0000000-00-00000000--00-0-------00000000-00-000000 
 
 
        ## 
|-------------------------------------------------- 
|-------------------------------------------------- 
|-------------------------------------------------- 
|--------7------------------------------9-7-------- 
|-----5--5------------------------------7-5-------- 
|00-0-3-------000000000-00-0000000-00-0-----0000000 
 
|--------------------------------------------------- 
|--------------------------------------------------- 
|--------------------------------------------------- 
|---------------------5-7--------------------------- 
|---------------------3-5--------------------------- 
|00-0000000-00-33-XXX------------------------------- 
 
verso 1 
|--------------------------------------------------- 
|--------------------------------------------------- 
|--------------------------------------------------- 
|-------------------------------------------7-5----7 
|-------------------------------------------5-3-33-5 
|3--00-22-3--22-00-22-3-00-22-3--22-00-22-00-------- 
 
Pré refrao 
 
|--------------------------------------------------- 
|--------------------------------------------------- 
|--------------------------------------------------- 
|--------5------------------------------------------ 
|5-------3--------------------555555555555---------- 
|3-------------5555555555555------------------------ 
 
refrão 
 
|-------------------------------------------------- 
|-------------------------------------------------- 
|-------------------------------------------------- 
|------9------------7----------------------9------- 
|------7------------5----------------------7------- 
|0-2-3----33-22-33-----3-2-0-3-2-0---0-2-3---3-2-3- 
 
|--------------------------------------------------- 
|--------------------------------------------------- 
|--------------------------------------------------- 
|---------7----------------------------------------- 
|7--------5----------------------------------------- 
|5-------------------------------------------------- 
 
Repete tudo 
riff 2 
|--------------------------------- 
|--------------------------------- 
|--------------------------------- 
|-------------------------------7- 
|-------------------------------5- 
|320-320-320----000-320-320-320--- 
riff 3 
|--------------------------------------------------- 
|--------------------------------------------------- 
|--------------------------------------------------- 
|--------------------------------------------------- 
|--------------------------------------------------- 
|000000000-00-333333333-2-3-5-0-2-3-00000000000----- 
 
|--------------------------------------------------- 
|--------------------------------------------------- 
|--------------------------------------------------- 
|-------------------7------------------------------- 
|-------------------5------------------------------- 
|3333333333-5-0-2-3--------------------------------- 
 
|----------------------------- 
|----------------------------- 
|----------------------------- 
|2----------9-------8-------7-    volta riff 3 
|2---------------------------- 
|0---------------------------- 
 
|----------------------------- 
|----------------------------- 
|----------------------------- 
|4---------11------10-------9- 
|4---------------------------- 
|2---------------------------- 
 
|--------------------------------------------------- 
|10--------14----15h17p15------10-----14----15h17p15 
|--------------------------------------------------- 
|--------------------------------------------------- 
|--------------------------------------------------- 
|--------------------------------------------------- 
 
|--------------------------------------------------- 
|-----15p14-15-14p12-14-12p10-12-10p8-10------------ 
|--------------------------------------------------- 
|--------------------------------------------------- 
|--------------------------------------------------- 
|--------------------------------------------------- 
 
|---------------------------- 
|---------------------------- 
|----------------------------varias vezes diminuindo 
|-----------5h6-------------5 o ritimo 
|-------5h7-----7-----------5 
|1p0-00------------000--1p0-3 
 
 
_______________________________________________________ 
Contribuição: Valker Renato([email protected]) 

	  

Search Paypal
auto scroll beats size up size down change color hide chords drawings
tab show chords e-chords YouTube Clip e-chords hide all tabs e-chords go to top tab