Heino

La Montanara

Heino

tabs nolevel nolevel

by  CARLLUZ

save to print version add songbook text version e-mail correct tuner
chordsukulelecavacokeyboardtabbassdrumsharmonicaflute Guitar Pro
close

there isn't a video lesson for this song

chords

La Montanara

	  		
Chorus 
   C                                                                             G7 
E|---------0-------3-------|-5-------3-----------0---|-5-------3-----------0---|-1---0-------------------| 
B|-1-----------------------|-------------------------|-------------------------|---------3---------------| 
G|-----0-------0-------0---|-----0-------0-----------|-----0-------0-----------|-------------0-------0---| 
D|---------2-------2-------|---------2-------2-------|---------2-------2-------|---------0-------0-------| 
A|-3-----------------------|-5-----------------------|-5-----------------------|-------------------------| 
E|-------------------------|-------------------------|-------------------------|-3-----------------------| 

                                                                                C 
E|-------------------------|-1-------1-----------0---|-3-------1-----------0---|-------------------------| 
B|---------0-------3-------|-------------------------|-------------------------|-3-------1---------------| 
G|-0-----------0-------0---|-----0-------0-----------|-----0-------0-----------|-----0-------0-------0---| 
D|-----0---0---------------|---------0-------0-------|---------0-------0-------|---------2-------2-------| 
A|-------------------------|-------------------------|-------------------------|-3-----------------------| 
E|-3-----------------------|-3-----------------------|-3-----------------------|-------------------------| 

                                                                                 F 
E|---------0-------3-------|-5-------3-----------0---|-5-------3-----------5---|-7-------5---------------| 
B|-1-----------------------|-------------------------|-------------------------|-------------------------| 
G|-----0-------0-------0---|-----0-------0-----------|-----0-------0-----------|-----0-------0-------0---| 
D|---------2-------2-------|---------2-------2-------|---------2-------2-------|---------0-------0-------| 
A|-3-----------------------|-5-----------------------|-5-----------------------|-------------------------| 
E|-------------------------|-------------------------|-------------------------|-7-----------------------| 

   G7                        C                         G7                        C 
E|-1-------3---5---3---1---|-3-------0-----------3---|-1---------------0-------|-------------------------| 
B|-------------------------|-------------------------|---------3---------------|-1-----------------------| 
G|-----0-------------------|-----0-------0-----------|-----0-------0-------0---|-----0-------0-------0---| 
D|---------0-------0-------|---------2-------2-------|---------0-------0-------|---------2-------2-------| 
A|-------------------------|-3-----------------------|-------------------------|-3-----------------------| 
E|-3-----------------------|-------------------------|-3-----------------------|-------------------------| 

Verse 
   C                                                                             G 
E|-------------------------|-0-----------------------|-------------------------|-------------------| 
B|-1---------------1---3---|---------------------1---|-3-------1---------------|-0-----------------| 
G|-----0-------0-----------|-----0-------0-----------|-----0-------0-------2---|-----2---0---------| 
D|---------2-------2-------|---------2-------2-------|---------2-------0-------|---------0----0----| 
A|-3-----------------------|-3-----------------------|-3-----------------------|-------------------| 
E|-------------------------|-------------------------|-------------------------|-3-----------------| 

                          G7                                                  C 
E|----------------------|-1-------1-----------0---|-3-------1-----------0---|-------------------------| 
B|------0-------3-------|-------------------------|-------------------------|-3-------1---------------| 
G|-0--------0-------0---|-----0-------0-----------|-----0-------0-----------|-----0-------0-------0---| 
D|------0-------0-------|---------0-------0-------|---------0-------0-------|---------2-------2-------| 
A|----------------------|-------------------------|-------------------------|-3-----------------------| 
E|-3--------------------|-3-----------------------|-3-----------------------|-------------------------| 

                                                                                 F 
E|-0---------------0---1---|-3-------------------3---|-5-------3-----------5---|-7-------5---------------| 
B|-------------------------|-------------------------|-------------------------|-------------------------| 
G|-----0-------0-----------|-----0-------0-----------|-----0-------0-----------|-----0-------0-------0---| 
D|---------2-------2-------|---------2-------2-------|---------2-------2-------|---------0-------0-------| 
A|-3-----------------------|-3-----------------------|-5-----------------------|-------------------------| 
E|-------------------------|-------------------------|-------------------------|-7-----------------------| 

   G7                        C                         G7                        C 
E|-1-------3---5---3---1---|-3-------0-----------3---|-1---------------0-------|-------------------------| 
B|-------------------------|-------------------------|---------3---------------|-1-----------------------| 
G|-----0-------------------|-----0-------0-----------|-----0-------0-------0---|-----0-------0-------0---| 
D|---------0-------0-------|---------2-------2-------|---------0-------0-------|---------2-------2-------| 
A|-------------------------|-3-----------------------|-------------------------|-3-----------------------| 
E|-3-----------------------|-------------------------|-3-----------------------|-------------------------| 
		  

Full key step upFull key step up
Half key step upHalf key step up
Half key step downHalf key step down
Full key step downFull key step down
hide glossary

See also:

tabs Deep Purple - Sometimes a Feel Like Screaming tabs Deep Purple - Mistreated tabs Deep Purple - Smoke on the Water (ver. 2) tabs Ira! - Vitrine Viva tabs Doa - Sexyest Girl tabs Deep Purple - Ted The Mechanic
e-chords

Other versions:

tabs Heino - La Montanara
auto scroll beats size up size down change color hide chords drawings
tab show chords e-chords YouTube Clip e-chords hide all tabs e-chords go to top tab

share with facebook