Heights

Oceans

Heights

tabs

by  TAMAMOREIRA

save to print version add songbook text version e-mail correct tuner
chordsukulelecavacokeyboardtabbassdrumsharmonicaflute Guitar Pro
close

there isn't a video lesson for this song

chords

Oceans

Key:  C# More
Oceans Key G#G#
Oceans Key AA
Oceans Key A#A#
Oceans Key BB(one step down)
Oceans Key CC(half step down)
Oceans Key C#C#(original key)
Oceans Key DD(half step up)
Oceans Key D#D#(one step up)
Oceans Key EE
Oceans Key FF
Oceans Key F#F#
Oceans Key GG
	  		
// 00:00 // 

-----------------------------------------------------------------------------------------------| 
-----------------------------------------------------------------------------------------------| 
-----------------------------------------------------------------------------------------------| 
-0-4-4-1-1-4-4--1~--0-1-0-1~-1~--0-4-4-1-1-4-4--1~--0-1-0-4--X---------------------------------| 
-0-4-4-1-1-4-4--1~--0-1-0-1~-1~--0-4-4-1-1-4-4--1~--0-1-0-4--X---------------------------------| 
-0-4-4-1-1-4-4--1~--0-1-0-1~-1~--0-4-4-1-1-4-4--1~--0-1-0-4--X---------------------------------| 
                    .   .                           .   . 


// 00:11 // 
         
I?ll make amends for every mistake of life 
If you make amends for every breath you took 
-----------------------------------------------------------------------------------------------| 
-----------------------------------------------------------------------------------------------| 
-----------------------------------------------------------------------------------------------| 
-0-4-4-1-1-4-4--1~--0-1-0-1~-1~--0-4-4-1-1-4-4--1~--0-1-0-4-3----------------------------------| 
-0-4-4-1-1-4-4--1~--0-1-0-1~-1~--0-4-4-1-1-4-4--1~--0-1-0-4-3----------------------------------| 
-0-4-4-1-1-4-4--1~--0-1-0-1~-1~--0-4-4-1-1-4-4--1~--0-1-0-4-3----------------------------------| 
                    .   .        .                  .   . 
                                         
                                                                                 
// 00:20 // 
                                         
Open my lungs, and finish what you started    
Open my heart, and replace what you stole                      
-----------------------------------------------------------------------------------------------| 
-----------------------------------------------------------------------------------------------| 
-----------------------------------------------------------------------------------------------| 
-1~1~1~-0-1-00--1~1~1~-0-1-00--1~1~1~-0-1-00--0-4-4-00-3-3-00-4-3------------------------------|  
-1~1~1~-0-1-00--1~1~1~-0-1-00--1~1~1~-0-1-00--0-4-4-00-3-3-00-4-3------------------------------|  
-1~1~1~-0-1-00--1~1~1~-0-1-00--1~1~1~-0-1-00--0-4-4-00-3-3-00-4-3------------------------------|  
        .   ..         .   ..         .   ..  .     ..     ..            

Open my lungs, and finish what you started                
Open my heart, and replace what you stole                                                        
-----------------------------------------------------------------------------------------------|  
-----------------------------------------------------------------------------------------------|  
-----------------------------------------------------------------------------------------------|  
-1~1~1~-0-1-00--1~1~1~-0-1-00--1~1~1~-0-1-00--0-4-4-0-3-3-0-4-3--------------------------------|  
-1~1~1~-0-1-00--1~1~1~-0-1-00--1~1~1~-0-1-00--0-4-4-0-3-3-0-4-3--------------------------------|  
-1~1~1~-0-1-00--1~1~1~-0-1-00--1~1~1~-0-1-00--0-4-4-0-3-3-0-4-3--------------------------------|  
        .   ..         .   ..         .   ..  .     .     . 

                 
// 00:40 // 

Remember my name, remember my face 
Remember where we?ve been 
In the clear light of day 
Your mind washes like the tides 
-----------------------------------------------------------------------------------------------| | 
-----------------------------------------------------------------------------------------------| | 
-----------------------------------------------------------------------------------------------| | 
-5------------3------------1-------------------------------------------------------------------| | 
-5-x16------3-x16------1-x32-------------------------------------------------------------| | 
-5------------3------------1-------------------------------------------------------------------| | 
                                                                                                 | x2 
-----------------------------------------------------------------------------------------------| | 
-----------------------------------------------------------------------------------------------| | 
-15-----------14-----------12------------------------------------------------------------------| | 
----x16--------x16--------x32------------------------------------------------------------| | 
-13-----------12-----------10------------------------------------------------------------------| | 
-----------------------------------------------------------------------------------------------| | 


// 01:00 // 

// Strumming pattern changing here. You can clearly hear it. 

Remember my name,  
Remember my face 
-----------------------------------------------------------------------------------------------| | 
-----------------------------------------------------------------------------------------------| | 
-----------------------------------------------------------------------------------------------| | 
-5------------3------------1-------------------------------------------------------------------| | 
-5-x4-------3-x4-------1-x8--------------------------------------------------------------| | 
-5------------3------------1-------------------------------------------------------------------| | 
                                                                                                 | 
-----------------------------------------------------------------------------------------------| | 
-----------------------------------------------------------------------------------------------| | 
-15-----------14-----------12------------------------------------------------------------------| | 
----x4---------x4---------x8-------------------------------------------------------------| | 
-13-----------12-----------10------------------------------------------------------------------| | 
-----------------------------------------------------------------------------------------------| | 

Remember where we've been 
-----------------------------------------------------------------------------------------------| | 
-----------------------------------------------------------------------------------------------| | 
-----------------------------------------------------------------------------------------------| | 
-5------------3------------1------------1~-----------------------------------------------------| | 
-5-x4-------3-x4-------1-x4-------1~-----------------------------------------------------| | 
-5------------3------------1------------1~-----------------------------------------------------| | 
                                                                                                 | 
// Tremolo with delay                                                                            | 
---------------------------17-----------16~----------------------------------------------------| | 
-15-----------18-------------------------------------------------------------------------------| | 
-----------------------------------------------------------------------------------------------| | 
-----------------------------------------------------------------------------------------------| | 
-----------------------------------------------------------------------------------------------| | 
-----------------------------------------------------------------------------------------------| | 


// 01:20 // 

I?ll lead you down a well worn path, walk for days 
Is there a light at the end of the road? 
-----------------------------------------------------------------------------------------------| 
-----------------------------------------------------------------------------------------------| 
-----------------------------------------------------------------------------------------------| 
-0-4-4-1-1-4-4--1~---------------0-4-4-1-1-4-4--1~--0-1-0--4-4-3-3-----------------------------| 
-0-4-4-1-1-4-4--1~---------------0-4-4-1-1-4-4--1~--0-1-0--4-4-3-3-----------------------------| 
-0-4-4-1-1-4-4--1~---------------0-4-4-1-1-4-4--1~--0-1-0--4-4-3-3-----------------------------| 
                                                    .   . 
                                                                                                         
Rewrite my lines on the face of the sun 
I?ll hang them there for the world to see 
-----------------------------------------------------------------------------------------------| 
-----------------------------------------------------------------------------------------------| 
-----------------------------------------------------------------------------------------------| 
-0-4-4-1-1-4-4--1~--0-1-0-1~-1~--0-4-4-1-1-4-4--1~--0-1-0-4-3----------------------------------| 
-0-4-4-1-1-4-4--1~--0-1-0-1~-1~--0-4-4-1-1-4-4--1~--0-1-0-4-3----------------------------------| 
-0-4-4-1-1-4-4--1~--0-1-0-1~-1~--0-4-4-1-1-4-4--1~--0-1-0-4-3----------------------------------| 
                    .   .                           .    
                                         

// 01:40 // 

Open you eyes, and witness the destruction    
Open your ears, and hear what you?ve become                                                     
-----------------------------------------------------------------------------------------------| 
-----------------------------------------------------------------------------------------------| 
-----------------------------------------------------------------------------------------------| 
-1~1~1~-0-1-00--1~1~1~-0-1-00--1~1~1~-0-1-00--0-4-4-00-3-3-00-4-3------------------------------| 
-1~1~1~-0-1-00--1~1~1~-0-1-00--1~1~1~-0-1-00--0-4-4-00-3-3-00-4-3------------------------------| 
-1~1~1~-0-1-00--1~1~1~-0-1-00--1~1~1~-0-1-00--0-4-4-00-3-3-00-4-3------------------------------| 
        .   ..         .   ..         .   ..  .     ..     ..               
                 
Open you eyes, and witness the destruction   
Open your ears, and hear what you?ve become                                                      
-----------------------------------------------------------------------------------------------|  
-----------------------------------------------------------------------------------------------|  
-----------------------------------------------------------------------------------------------| 
-1~1~1~---------1~1~1~---------1~1~1~---------0-4-4-00-3-3-00-4-3-1~---------------------------| 
-1~1~1~---------1~1~1~---------1~1~1~---------0-4-4-00-3-3-00-4-3-1~---------------------------| 
-1~1~1~---------1~1~1~---------1~1~1~---------0-4-4-00-3-3-00-4-3-1~---------------------------| 
                                                    ..     .. 
         
// 02:09 // 

-----------------------------------------------------------------------------------------------| 
-----------------------------------------------------------------------------------------------| 
-----------------------------------------------------------------------------------------------| 
-1~---------------5~-----------3~--------------------------------------------------------------| 
-1~---------------5~-----------3~--------------------------------------------------------------| 
-1~---------------5~-----------3~--------------------------------------------------------------| 


// 02:16 // 

Is this where life begins 
Is this where life begins 
-----------------------------------------------------------------------------------------------| | 
-----------------------------------------------------------------------------------------------| | 
-----------------------------------------------------------------------------------------------| | 
-1~---------------5~-----------3~-----------1~---------------5~-----------3~-------------------| | 
-1~---------------5~-----------3~-----------1~---------------5~-----------3~-------------------| | 
-1~---------------5~-----------3~-----------1~---------------5~-----------3~-------------------| | 
                                                                                                 | 
-----------------------------------------------------------------------------------------------| | 
-----------------------------------------------------------------------------------------------| | 
-12~--------------15~----------14-----------12~--------------15~----------14~------------------| | 
-----------------------------------------------------------------------------------------------| | 
-10~--------------13~----------12~----------10~--------------13~----------12~------------------| | 
-----------------------------------------------------------------------------------------------| | 


// 02:32 // 

Is this where life begins 
Is this where life begins 
-----------------------------------------------------------------------------------------------| | 
-----------------------------------------------------------------------------------------------| | 
-----------------------------------------------------------------------------------------------| | 
-1----------------3------------5------------1----------------3------------5--------------------| |  
-1-x16----------3-x8-------5-x8-------1-x16----------3-x8-------5-x8---------------| | 
-1----------------3------------5------------1----------------3------------5--------------------| | 
                                                                                                 | x2 
-----------------------------------------------------------------------------------------------| | 
-----------------------------------------------------------------------------------------------| | 
-12---------------10-----------7------------12---------------10-----------7--------------------| | 
----x16-----------x8---------x8----------x16-----------x8---------x8---------------| | 
-10---------------8------------5------------10---------------8------------5--------------------| | 
-----------------------------------------------------------------------------------------------| | 


// 02:52 // 

Is this where life begins 
Find out who really are 
-----------------------------------------------------------------------------------------------| | 
-----------------------------------------------------------------------------------------------| | 
-----------------------------------------------------------------------------------------------| | 
-1----------------3------------5------------1----------------3------------5--------------------| | 
-1-x16----------3-x8-------5-x8-------1-x16----------3-x8-------5-x8---------------| | 
-1----------------3------------5------------1----------------3------------5--------------------| | 
                                                                                                 | x2 
-----------------------------------------------------------------------------------------------| | 
-----------------------------------------------------------------------------------------------| | 
-12---------------10-----------7------------12---------------10-----------7--------------------| | 
----x16-----------x8---------x8---------x16------------x8---------x8---------------| | 
-10---------------8------------5------------10---------------8------------5--------------------| | 
-----------------------------------------------------------------------------------------------| | 


// 03:12 // 

Remember my name, remember my face 
Remember where we?ve been 
-----------------------------------------------------------------------------------------------| | 
-----------------------------------------------------------------------------------------------| | 
-----------------------------------------------------------------------------------------------| | 
-5~-----------3------------1-------------------------------------------------------------------| | 
-5~-----------3-x16------1-x32-------------------------------------------------------------| | 
-5~-----------3------------1-------------------------------------------------------------------| | 
                                                                                                 | 
-----------------------------------------------------------------------------------------------| | 
-----------------------------------------------------------------------------------------------| | 
-15-----------14-----------12------------------------------------------------------------------| | 
----x16--------x16--------x32------------------------------------------------------------| | 
-13-----------12-----------10------------------------------------------------------------------| | 
-----------------------------------------------------------------------------------------------| | 

In the clear light of day 
Your mind washes like the tides 
-----------------------------------------------------------------------------------------------| | 
-----------------------------------------------------------------------------------------------| | 
-----------------------------------------------------------------------------------------------| | 
-5------------3------------1-------------------------------------------------------------------| | 
-5-x16------3-x16------1-x32-------------------------------------------------------------| | 
-5------------3------------1-------------------------------------------------------------------| | 
                                                                                                 |  
-----------------------------------------------------------------------------------------------| | 
-----------------------------------------------------------------------------------------------| | 
-15-----------14-----------12------------------------------------------------------------------| | 
----x16--------x16--------x32------------------------------------------------------------| | 
-13-----------12-----------10------------------------------------------------------------------| | 
-----------------------------------------------------------------------------------------------| | 


// 03:32 // 

Remember (remember my name) 
Remember (remember my face) 
Remember (where we?ve been) 
-----------------------------------------------------------------------------------------------| | 
-----------------------------------------------------------------------------------------------| | 
-----------------------------------------------------------------------------------------------| | 
-5------------3------------1-------------------------------------------------------------------| |  
-5-x16------3-x16------1-x32-------------------------------------------------------------| | 
-5------------3------------1-------------------------------------------------------------------| | 
                                                                                                 | 
-----------------------------------------------------------------------------------------------| | 
-----------------------------------------------------------------------------------------------| | 
-15-----------14-----------12------------------------------------------------------------------| | 
----x16--------x16--------x32------------------------------------------------------------| | x2 
-13-----------12-----------10------------------------------------------------------------------| | 
-----------------------------------------------------------------------------------------------| | 
                                                                                                 | 
-----------------------------------------------------------------------------------------------| | 
-15b----------15b----------15b----------15b----------------------------------------------------| | 
----12-14b-12----12-14b-12----12-14b-12----12-14b-12-------------------------------------------| | 
-----------------------------------------------------------------------------------------------| | 
-----------------------------------------------------------------------------------------------| | 
-----------------------------------------------------------------------------------------------| | 


// 03:52 // 

-----------------------------------------------------------------------------------------------| | 
-----------------------------------------------------------------------------------------------| | 
-----------------------------------------------------------------------------------------------| | 
-5------------3------------1-------------------------------------------------------------------| |  
-5-x16------3-x16------1-x32-------------------------------------------------------------| | 
-5------------3------------1-------------------------------------------------------------------| | 
                                                                                                 | 
---------------------------18-----------17~----------------------------------------------------| | 
-15-----------18-------------------------------------------------------------------------------| | 
-----------------------------------------------------------------------------------------------| | 
-----------------------------------------------------------------------------------------------| | x4 
-----------------------------------------------------------------------------------------------| | 
-----------------------------------------------------------------------------------------------| | 
                                                                                                 | 
-----------------------------------------------------------------------------------------------| | 
-15b----------15b----------15b----------15b----------------------------------------------------| | 
----12-14b-12----12-14b-12----12-14b-12----12-14b-12-------------------------------------------| | 
-----------------------------------------------------------------------------------------------| | 
-----------------------------------------------------------------------------------------------| | 
-----------------------------------------------------------------------------------------------| | 


// 04:33 // 

-----------------------------------------------------------------------------------------------| 
-----------------------------------------------------------------------------------------------|  
-----------------------------------------------------------------------------------------------|  
-1~1~1~-0-1-00--1~1~1~-0-1-00--1~1~1~-0-1-00--00-4-4-00-3-3-0-4-3~-----------------------------|  
-1~1~1~-0-1-00--1~1~1~-0-1-00--1~1~1~-0-1-00--00-4-4-00-3-3-0-4-3~-----------------------------|  
-1~1~1~-0-1-00--1~1~1~-0-1-00--1~1~1~-0-1-00--00-4-4-00-3-3-0-4-3~-----------------------------|  
        .   ..         .   ..         .   ..  ..     ..     . 

                 
// 04:53 //      

Open you eyes, and witness the destruction 
Open your ears, and hear what you?ve become                
-----------------------------------------------------------------------------------------------|  
-----------------------------------------------------------------------------------------------|  
-----------------------------------------------------------------------------------------------|  
-1~1~1~-0-1-00--1~1~1~-0-1-00--1~1~1~-0-1-00--0-1-1-00-1-0-0~----------------------------------|   
-1~1~1~-0-1-00--1~1~1~-0-1-00--1~1~1~-0-1-00--0-1-1-00-1-0-0~----------------------------------|   
-1~1~1~-0-1-00--1~1~1~-0-1-00--1~1~1~-0-1-00--0-1-1-00-1-0-0~----------------------------------|  
        .   ..         .   ..         .   ..  .     ..   . 
                 
Open you eyes, and witness the destruction 
Open your ears, and hear what you?ve become                        
-----------------------------------------------------------------------------------------------|  
-----------------------------------------------------------------------------------------------|  
-----------------------------------------------------------------------------------------------|  
-0~0~0~-0-0-00--0~0~0~-0-0-00--0~0~0~-0-0-00--0-0-0-0-0-0-0------------------------------------|   
-0~0~0~-0-0-00--0~0~0~-0-0-00--0~0~0~-0-0-00--0-0-0-0-0-0-0------------------------------------|  
-0~0~0~-0-0-00--0~0~0~-0-0-00--0~0~0~-0-0-00--0-0-0-0-0-0-0------------------------------------|  
        .   ..         .   ..         .   ..  .     .     . 
		  

See also:

tabs Deep Purple - Smoke on the water (ver. 3) tabs Albert Hammond Jr - Holiday tabs Deep Purple - When a Blind man cries tabs Deep Purple - The Unwritten Law tabs Deep Purple - Highway Star tabs Ira! - Núcleo Base ( Acústico MTV)
e-chords

Other versions:

tabs Pearl Jam - Oceans tabs Coasts - Oceans tabs Heights - Oceans tabs Roger Waters - Oceans Apart
auto scroll beats size up size down change color hide chords drawings
tab show chords e-chords YouTube Clip e-chords hide all tabs e-chords go to top tab

share