Heights

In Transit

Heights

tabs

by  HEBEALMEIDA

save to print version add songbook text version e-mail correct tuner
chordsukulelecavacokeyboardtabbassdrumsharmonicaflute Guitar Pro
close

there isn't a video lesson for this song

chords

In Transit

	  		Tuning: drop C# (d# A# F# C# G# C#) 

/ - slide 
~ - let ring 



// 00:00 // 


// 1st guitar 

---------------------------------------------------------| 
---------------------------------------------------------| 
---------------------------------------------------------| 
-3--------7-------6--------------------------------------| x6 
-3-x32--7-x16-6-x16--------------------------------| 
-3--------7-------6--------------------------------------| 

// 2nd guitar 

---------------------------------------------------------| 
--------------------4/5-------10-------9-------8---------| 
-/*epic fade in*/-------x16----x16---x16---x16---| x5 (with fade in) 
--------------------2/3--------8-------7-------6---------| 
---------------------------------------------------------| 
---------------------------------------------------------| 


// 01:04 // 


// BOTH GUITARS 
// (no words first time) 

Come the morning I'll be married to death, 
And fear will be my best man. 
-----------------------------------------| 
-----------------------------------------| 
-----------------------------------------| 
-3--------7------6------3--------5-------| x2 
-3-x8---7-x4-6-x4-3-x8---5-x8--| 
-3--------7------6------3--------5-------| 

Come the morning I'll be dragged down the aisle, 
The alter is old age, and envy is my child. 
-----------------------------------------| 
-----------------------------------------| 
-----------------------------------------| 
-3--------7------6------5----------------| x1 
-3-x8---7-x4-6-x4-5-x16----------| 
-3--------7------6------5----------------| 

If we're born for only stories to tell, 
Why do you live inside a hell? 
-----------------------------------------| 
-----------------------------------------| 
-----------------------------------------| 
-3--------7------6------3--------5-------| x1 
-3-x8---7-x4-6-x4-3-x8---5-x8--| 
-3--------7------6------3--------5-------| 

All that's left at the end of your rope, 
A noose to hang your dreams and hope. 
-----------------------------------------| 
-----------------------------------------| 
-----------------------------------------| 
-3--------7------6------5----------------| x1 
-3-x8---7-x4-6-x4-5-x16----------| 
-3--------7------6------5----------------| 


// 01:30 // 


// 1ST GUITAR 

-----------------------------------------| 
-----------------------------------------| 
-----------------------------------------| 
-3~--------------------------------------| 
-3~--------------------------------------| 
-3~--------------------------------------| 

// 2ND GUITAR 

-----------------------------------------| 
-5---------------------------------------| 
---x64---------------------------------| 
-3---------------------------------------| 
-----------------------------------------| 
-----------------------------------------| 


// 01:41 // 


// ONLY 2ND GUITAR, DRUMS AND BASS 

Death, disaster, life, ever after. 

Death, (close in year by year) 
Disaster, (now I have no fear) 
Life, (is my sadness) 
Ever after. 
-----------------------------------------| 
---5-------10-------9-------8------------| 
-----x16----x16---x16---x16------| x2 
---3--------8-------7-------6------------| 
-----------------------------------------| 
-----------------------------------------| 


// 02:03 // 


// THEN BOTH GUITARS PLAYING SAME AS 1ST Verse: 

I don't want to be buried with guilt, 
-----------------------------------------| 
-----------------------------------------| 
-----------------------------------------| 
-3--------7------6------3--------5-------| x1 
-3-x8---7-x4-6-x4-3-x8---5-x8--| 
-3--------7------6------3--------5-------| 

But I want to live with free will. 
-----------------------------------------| 
-----------------------------------------| 
-----------------------------------------| 
-3--------7------6------5----------------| x1 
-3-x8---7-x4-6-x4-5-x16----------| 
-3--------7------6------5----------------| 

I'm married to death, 
-----------------------------------------| 
-----------------------------------------| 
-----------------------------------------| 
-3--------7------6------3--------5-------| x1 
-3-x8---7-x4-6-x4-3-x8---5-x8--| 
-3--------7------6------3--------5-------| 

And my mistress is disaster. 
-----------------------------------------| 
-----------------------------------------| 
-----------------------------------------| 
-3--------7------6------5----------------| x1 
-3-x8---7-x4-6-x4-5-x16----------| 
-3--------7------6------5----------------| 


// 02:24 // 


// SECOND Chorus 

Death, (close in year by year) 
Disaster, (now I have no fear) 
Life, (is my sadness) 
Ever after. 
Death, (close in year by year) 
Disaster, (now I have no fear) 
Life, (is my sadness) 
Ever after. 

// 1ST GUITAR 

---------------------------------------| 
---------------------------------------| 
---------------------------------------| 
-3--------7-------6--------------------| x2 
-3-x32--7-x16-6-x16--------------| 
-3--------7-------6--------------------| 

// 2ND GUITAR 

---------------------------------------| 
-4/5-------10-------9-------8----------| 
-----x16----x16---x16---x16----| x2 
-2/3--------8-------7-------6----------| 
---------------------------------------| 
---------------------------------------| 


// 02:43 // 


// 1ST GUITAR 

---------------------------------------| 
---------------------------------------| 
---------------------------------------| 
-3~------7~-7~6~-----------------------| 
-3~------7~-7~6~-----------------------| 
-3~------7~-7~6~-----------------------| 


// 2ND GUITAR 

---------------------------------------| 
-5~------9~-9~8~-----------------------| 
---------------------------------------| 
-3~------7~-7~6~-----------------------| 
---------------------------------------| 
---------------------------------------| 


// 02:59 // 

// LET ALL NOTES BUT VERY LAST 2'S RING AFTER FIRST REPEAT 

// 1ST GUITAR 

------------------------------------------------------------------| 
------------------------------------------------------------------| 
------------------------------------------------------------------| 
-0--------------------------7-3-5-0-------------------------------| 
-0--------------------------7-3-5-0-------------------------------| 
-0--------------------------7-3-5-0-------------------------------| 
  Death married me.                I'll be the best man I can be. 
                                                                                          
                             x4 

------------------------------------------------------------------| 
------------------------------------------------------------------| 
------------------------------------------------------------------| 
-0--------------------------7-3-5-3~----------2~------------------| 
-0--------------------------7-3-5-3~----------2~------------------| 
-0--------------------------7-3-5-3~----------2~------------------| 
  Disaster followed me.             And I can hardly breathe. 

// AFTER SECOND REPEAT 2ND GUITAR COMES IN: 

------------------------------------------------------------------| 
-14~--------------------------------14~---------------------------| 
------------------------------------------------------------------| 
-12~--------------------------------12~---------------------------| 
------------------------------------------------------------------| 
------------------------------------------------------------------| 
                                                                                          
                              x2 

------------------------------------------------------------------| 
-16~--------------------------------17~-------16~-----------------| 
------------------------------------------------------------------| 
-14~--------------------------------15~-------14~-----------------| 
------------------------------------------------------------------| 
------------------------------------------------------------------| 


// 04:15 // 


// 1ST GUITAR 

---------------------------------------| 
---------------------------------------| 
---------------------------------------| 
-0~------------------------------------| 
-0~------------------------------------| 
-0~------------------------------------| 
        Death! 

// 2ND GUITAR 

---------------------------------------| 
-14~-----------------------------------| 
---------------------------------------| 
-12~-----------------------------------| 
---------------------------------------| 
---------------------------------------|  
		  

See also:

tabs Deep Purple - Deep Purple - Smoke On The Water tabs Ira! - Dias de Luta (Intro - Acustico Mtv) tabs Deep Purple - Smoke on The Water (ver.3) tabs Deep Purple - Into The Fire tabs Deep Purple - When a Blind man cries tabs Deep Purple - Highway Star
e-chords

Other versions:

tabs Heights - In Transit
auto scroll beats size up size down change color hide chords drawings
tab show chords e-chords YouTube Clip e-chords hide all tabs e-chords go to top tab

share