Heidevolk

Een Geldersch Lied

Heidevolk

tabs

by  ALEFFEDERICO

save to print version add songbook text version e-mail correct tuner
chordsukulelecavacokeyboardtabbassdrumsharmonicaflute Guitar Pro
close

there isn't a video lesson for this song

chords

Een Geldersch Lied

	  		
Intro 

 (first riff, as mentioned below) 
e|-----------------------------------------------------------------------------------| 
B|-----------------------------------------------------------------------------------| 
G|-----------------------------------------------------------------------------------| 
D|-----------------------------------------------------------------------------------| 
A|4-4-4-4-4---4-4-4-4-4---4-4-4-4-4---4-4-4-4-4---4-4-4-4-4---4-4-4-4/7-7-7-7\2-2-2-2| 
E|2-2-2-2-2---2-2-2-2-2---2-2-2-2-2---2-2-2-2-2---2-2-2-2-2---2-2-2-2/5-5-5-5\0-0-0-0| 


Verse 

e|-----------------------------------------------------------------------------------|  
B|-----------------------------------------------------------------------------------|  
G|-----------------------------------------------------------------------------------|  
D|-----------------------------------------------------------------------------------| x7 
A|4-4-4-4-4---4-4-4-4-4---4-4-4-4-4---4-4-4-4-4---4-4-4-4-4---4-4-4-4/7-7-7-7\2-2-2-2|  
E|2-2-2-2-2---2-2-2-2-2---2-2-2-2-2---2-2-2-2-2---2-2-2-2-2---2-2-2-2/5-5-5-5\0-0-0-0|  

e|---------------------------------------------------------------------------------------------| 
B|---------------------------------------------------------------------------------------------| 
G|---------------------------------------------------------------------------------------------| 
D|---------------------------------------------------------------------------------------------| 
A|2-2-2-2-2---2-2-2-2-2---2-2-2-2-2---2-2-2-2-4---4-4-4-4-4---4-4-4-4-4---4-4-4-4-4---4-4-4-4-2| 
E|0-0-0-0-0---0-0-0-0-0---0-0-0-0-0---0-0-0-0-2---2-2-2-2-2---2-2-2-2-2---2-2-2-2-2---2-2-2-2-0| x3 

e|---------------------------------------------------------------------------------------------| 
B|---------------------------------------------------------------------------------------------| 
G|---------------------------------------------------------------------------------------------| 
D|---------------------------------------------------------------------------------------------| 
A|2-2-2-2-2---2-2-2-2-2---2-2-2-2-2---2-2-2-2-4---4-4-4-4-4---4-4-4-4-4---4-4-4-4-4---4-4-4-4-4| 
E|0-0-0-0-0---0-0-0-0-0---0-0-0-0-0---0-0-0-0-2---2-2-2-2-2---2-2-2-2-2---2-2-2-2-2---2-2-2-2-2| 

e|-----------------------------------------------------------------------------------|  
B|-----------------------------------------------------------------------------------|  
G|-----------------------------------------------------------------------------------|  
D|-----------------------------------------------------------------------------------| x7 
A|4-4-4-4-4---4-4-4-4-4---4-4-4-4-4---4-4-4-4-4---4-4-4-4-4---4-4-4-4/7-7-7-7\2-2-2-2|  
E|2-2-2-2-2---2-2-2-2-2---2-2-2-2-2---2-2-2-2-2---2-2-2-2-2---2-2-2-2/5-5-5-5\0-0-0-0|  

e|---------------------------------------------------------------------------------------------| 
B|---------------------------------------------------------------------------------------------| 
G|---------------------------------------------------------------------------------------------| 
D|---------------------------------------------------------------------------------------------| 
A|2-2-2-2-2---2-2-2-2-2---2-2-2-2-2---2-2-2-2-4---4-4-4-4-4---4-4-4-4-4---4-4-4-4-4---4-4-4-4-2| 
E|0-0-0-0-0---0-0-0-0-0---0-0-0-0-0---0-0-0-0-2---2-2-2-2-2---2-2-2-2-2---2-2-2-2-2---2-2-2-2-0| x3 

e|---------------------------------------------------------------------------------------------| 
B|---------------------------------------------------------------------------------------------| 
G|---------------------------------------------------------------------------------------------| 
D|---------------------------------------------------------------------------------------------| 
A|2-2-2-2-2---2-2-2-2-2---2-2-2-2-2---2-2-2-2-4---4-4-4-4-4---4-4-4-4-4---4-4-4-4-4---4-4-4-4-4| 
E|0-0-0-0-0---0-0-0-0-0---0-0-0-0-0---0-0-0-0-2---2-2-2-2-2---2-2-2-2-2---2-2-2-2-2---2-2-2-2-2| 

e|-----------------------------------------------------------------------------------|  
B|-----------------------------------------------------------------------------------|  
G|-----------------------------------------------------------------------------------|  
D|-----------------------------------------------------------------------------------| x4 
A|4-4-4-4-4---4-4-4-4-4---4-4-4-4-4---4-4-4-4-4---4-4-4-4-4---4-4-4-4/7-7-7-7\2-2-2-2|  
E|2-2-2-2-2---2-2-2-2-2---2-2-2-2-2---2-2-2-2-2---2-2-2-2-2---2-2-2-2/5-5-5-5\0-0-0-0|  


Outro 

e|-------------------------------------------------------------------------------------------------------|  
B|-------------------------------------------------------------------------------------------------------|  
G|-------------------------------------------------------------------------------------------------------|  
D|-------------------------------------------------------------------------------------------------------|  
A|4-4-4-4-4---4-4-4-4-4---4-4-4-4-4---4-4-4-4-4---4-4-4-4-4---4-4-4-4/7-7-7-7\2-2-2-2-4---2-4---2-4---2-4|  
E|2-2-2-2-2---2-2-2-2-2---2-2-2-2-2---2-2-2-2-2---2-2-2-2-2---2-2-2-2/5-5-5-5\0-0-0-0-2---0-2---0-2---0-2|  

~~~~~~~~~~~~~~~~~~~~~~~~ 
     Lead guitar 
Start after first riff on rhythm guitar and at 1:59 

e|2--0-5-2--0-5-2/5/7/9\7\5\4\2|                           | 
B|-----------------------------|                           | 
G|-----------------------------|                           | 
D|-----------------------------| x2                        | 
A|-----------------------------|                           | 
E|-----------------------------|                           | 
                                                           | 
Song time is 1:00, repeated on 2:24                      | 
e|2--0-5-2--0-5-2/5/7/9\7\5\4\7|                           | 
B|-----------------------------|                           | 
G|-----------------------------|                           | 
D|-----------------------------|                           | 
A|-----------------------------|                           | 
E|-----------------------------|                           | 
                                                           | 
e|0--0-4-5-7--7-5/9\2--9-9-9-7-5-7-5-4-7---7-5-7-9-2|      | 
B|--------------------------------------------------|      | 
G|--------------------------------------------------|      | 
D|--------------------------------------------------|      | 
A|--------------------------------------------------|      | 
E|--------------------------------------------------|      | 
                                                           | 
e|9-9-9-7-5-7-5-4-7---7-5-7-9-2|                           | 
B|-----------------------------|                           | 
G|-----------------------------|                           | 
D|-----------------------------|                           | 
A|-----------------------------|                           | 
E|-----------------------------|                           | x2 
_______ 

Outro, starts at 3:24 
e|2--0-5-2--0-5-2/5/7/9\7\5\4\2| 
B|-----------------------------| 
G|-----------------------------| 
D|-----------------------------| 
A|-----------------------------| 
E|-----------------------------| 


************************************ 

| /  Slide up 
| \  Slide down 


************************************ 
		  

See also:

tabs Heidevolk - Een Geldersch Lied
e-chords

Other versions:

tabs Heidevolk - Een Geldersch Lied
auto scroll beats size up size down change color hide chords drawings
tab show chords e-chords YouTube Clip e-chords hide all tabs e-chords go to top tab

share