Heather Dale

Mordreds Lullaby

Heather Dale

tabs nolevel nolevel

by  ADALGOMES

save to print version add songbook text version e-mail correct tuner
chordsukulelecavacokeyboardtabbassdrumsharmonicaflute Guitar Pro
close

there isn't a video lesson for this song

chords

Mordreds Lullaby

	  		



    Intro/Chorus 
           
e|---------------------------------------------------------------------------| 
B|--------1-------------------------------------1----------------------------| 
G|---0--0---3-2-0------0-----0--------------0-0---3-2-0-----0----0-----------| X2 
D|----------------3--2---------3-2-0--------------------3-2--------3-2-0-----| 
A|--3--------------------3-3----------3-1-3-------------------3-3-------3-1-3| 
E|---------------------------------------------------------------------------| 

  Verse 

e|---------------------------------------------------------------------------| 
B|---------------------------------------------------------------------------| 
G|---------------------------------------------------------------------------| 
D|------------0-0-0-0---0-1-1-1-0---0-0-0-1-0-------------0-0-0-0---0-1-1-1-1| 
A|-3-3-3-3--3---------3-----------3------------3-3-3-3--3---------3----------| 
E|---------------------------------------------------------------------------| 

e|-------------------| 
B|-------------------| 
G|-------------------| 
D|-0---0-0-0-1-0-----| 
A|---3---------------| 
E|-------------------| 

  Interlude 
   Loyalty loyalty loyalty loyalty loyalty loyalty loyalty only to me... 
e|--------------------------------------------------------| 
B|--------------------------------------------------------| 
G|--------------------------------------------------------| 
D|-------------------0-0-0-------------------0------------| 
A|-3-3-3-3-3-3-3-3-3-------3-3-3-3-3-3-3-3-3---3-1-3------| 
E|--------------------------------------------------------| 

  Verse- Interlude- Chorus- Interlude- Verse- Interlude- Chorus End 





************************************ 

| /   slide up 
| \   slide down 
| h   hammer-on 
| p   pull-off 
| ~   vibrato 
| +   harmonic 
| x   Mute note 
| b   Bend 
| pb  Pre-bend 
| br  Bend release 
| pbr Pre-bend release 
| brb Bend release bend 

************************************ 
		  

See also:

tabs Doa - Sexyest Girl tabs Deep Purple - Smoke on the water (intro) tabs Deep Purple - Highway Star tabs Albert Hammond Jr - Holiday tabs Deep Purple - Deep Purple - Smoke On The Water tabs Deep Purple - Ted The Mechanic
e-chords

Other versions:

tabs Heather Dale - Mordreds Lullaby
auto scroll beats size up size down change color hide chords drawings
tab show chords e-chords YouTube Clip e-chords hide all tabs e-chords go to top tab

share with facebook