Heart Of A Coward

Deadweight

Heart Of A Coward

tabs

by  TAMAMOREIRA

save to print version add songbook text version e-mail correct tuner
chordsukulelecavacokeyboardtabbassdrumsharmonicaflute Guitar Pro
close

there isn't a video lesson for this song

chords

Deadweight

	  		

A|---------------------------------------------------------------------------| 
E|---------------------------------------------------------------------------| 
B|-------------------------------------------1616-1717-1616-1717-16-17-16----| 
G#|--------------16----------16----------16----------------------------------| 
D|------13-13-14----13-13-14----13-13-14-------------------------------------| 
G#|--------------------------------------------------------------------------| 

0:51 - 1:18 part 

|--------------------------------------------------------------------------------------------| 
|--------------------------------------------------------------------------------------------| 
|--------------------------------------------------------------------------------------------| 
|--------------------------------------------------------------------------------------------|  
|--------------------------------------------------------------------------------------------| 
|-13-13-0~--13~--0-0000-0---15-13-12-13-12-0~--13-13-0~--000-000--0-0000-0--15-13-12-13-12-0~| 

Play this 2 times, then, Im not sure, but I believe it's all the same riff, bit one octave down, so play this 

|------------------------------------------------------------------------------| 
|------------------------------------------------------------------------------| 
|------------------------------------------------------------------------------| 
|------------------------------------------------------------------------------| 
|------------------------------------------------------------------------------| 
|---1-1-0~--1~--0-0000-0---3-1-0-1-0-0~--1-1-0~--000-000-0-0000-0--3-1-0-1-0-0-| 

2 times also. 

Then, there goes the part you already know and this one afterwards. 1:32 - 1:45. 2 times also :) 

|-------------------------------------------------------------------------------------------------| 
|-------------------------------------------------------------------------------------------------| 
|-------------------------------------------------------------------------------------------------| 
|------3-00000-33-44-33-44-3-00000-33-44-33-44-77-44-77-44-77-44-77-44-66-44-66-44-66-44-66-44----| 
|-------------------------------------------------------------------------------------------------| 
|-------------------------------------------------------------------------------------------------| 

1:46 - 1:59 part. Play this 4 times, and then you play all the same notes but as a chord 
(lol, dunno how to explain this better, cuz of my bad english) 

|---------------------------------------------------------------------------| 
|---------------------------------------------------------------------------| 
|------14--14--14--14--13--13--13--13---------------------------------------| 
|--------16--16--16--16--16--16--16--16-------------------------------------| 
|---------------------------------------------------------------------------| 
|---------------------------------------------------------------------------| 

2:00 - 2:10 

|---------------------------------------------------------------------------| 
|---------------------------------------------------------------------------| 
|------14-14-1414-14-14-14-141414-13-13-1313-13-13-13-131313----------------| 
|------16-16-1616-16-16-16-161616-16-16-1616-16-16-16-161616----------------| 
|---------------------------------------------------------------------------| 
|---------------------------------------------------------------------------| 

2:10 - 2:40 

|---------------------------------------------------------------------------| 
|---------------------------------------------------------------------------| 
|---------------------------------------------------------------------------| 
|------------------------(second guitar from  2:27 to 2:55) ---16b16.5b16---| 
|---------------------------------------------------------------------------| 
|------9--65656--9--6565-8-5656---------------------------------------------| 



I believe those are the main parts, and there are enough parts to cover this great song :) 
Almost evetything tabbet by ear, so there may be some mistakes. 
Feel free to correct all of the mistakes in the comments below :) 

************************************ 


| ~   let ring a bit 
| .5  bend half step (half tone or whatever) down 


************************************ 
		  

See also:

tabs Scalene - Milhares Como Eu tabs Deep Purple - Never A Word tabs Deep Purple - Smoke On The Water (Intro + solo 01) tabs Ira! - Flerte Fatal (intro e solo) tabs Deep Purple - Deep Purple - Smoke On The Water tabs Deep Purple - Burn
e-chords

Other versions:

tabs Heart Of A Coward - Deadweight
auto scroll beats size up size down change color hide chords drawings
tab show chords e-chords YouTube Clip e-chords hide all tabs e-chords go to top tab

share