Havok

Point Of No Return

Havok

tabs

by  ALYSLIMA

save to print version add songbook text version e-mail correct tuner
chordsukulelecavacokeyboardtabbassdrumsharmonicaflute Guitar Pro
close

there isn't a video lesson for this song

chords

Point Of No Return

	  		
4/4 Timing 


Intro (Main Riff) 

E|-----------------------------------------------| 
B|-----------------------------------------------| 
G|-----------------------------------------------| 
D|----------------------------------------9------| 
A|--------------------------------8-7-8----------| 
E|--0-000-0-000-0-000--0-------------------------| 

Harmony to Main Riff 

E|-------------------------------------------------| 
B|-------------------------------------------------| 
G|-------------------------------------------------| 
D|-----------------------------------------12------| 
A|--------------------------------11-10-11---------| 
E|--0-000-0-000-0-000--0---------------------------| 

E|---------------------------------------| 
B|---------------------------------------| 
G|---------------------------------------| 
D|----------------------------10---------| 
A|----------------------------8---3------| 
E|--0-000-0-000-0-000-0-----------1------| 

Part before the verse comes in 

E|---------------------------------------------------| 
B|---------------------------------------------------| 
G|---------------------------------------------------| 
D|------------------------------10-------------------| 
A|-------------------------------8---3---3-3-3-------| 
E|--0-000-0-000-0-000-0--------------1---1-1-1-------| 

Verse Riff (Reece plays) 

E|-------------------------------------------------------| 
B|-------------------------------------------------------| 
G|-------------------------------------------------------| 
D|-------------------------------------------------------| 
A|---1-1-1-1-------------------2--------------------2----| 
E|---3-3-3-3--0-0-0-0-1-0-1---0-0-0-0-0-0-0-0-1-0-1------| 

Power chord bit (When David comes in) 
E|-------------------------| 
B|-------------------------| 
G|-------------------------| 
D|--9-8-------8-9----------| 
A|--7-6--9-8--6-7----------| 
E|-------7-6---------------| 

Chorus Rhythm 

E|----------------------|----------------------------------------------------| 
B|----------------------|----------------------------------------------------| 
G|----------------------|----------------------------------------------------| 
D|---9-8--------8-9-----|-----1-------------------------1--------------------| 
A|---7-6--9-8--6-7------|-5--3---3--2--5--7--8---2---5--3--1--5-5-5-5-5-4----| 
E|---------7-6----------|-3------1--0--3--5--6---0---3-----3--3-3-3-3-3-2----| 
                            (We!) Can change our future! 


Solo Rhythm Riffs (David plays) 
E|------------------------------------------------| 
B|------------------------------------------------| 
G|------------------------------------------------| 
D|------------------------------------------------| 
A|--2-------2---------5-------2---------8-7-5-7---| 
E|--0--0-0--0---0--0--3--0-0--0--0-0----6-5-3-5---| 


E|--------------------------------------| 
B|--------------------------------------| 
G|--------------------------------------| 
D|-------------------------------3------| 
A|-2------2-------5-------2---5--1------| 
E|-0-0-0-0--0-0-3-0-0-0--0-0--3---------| 

E|-----------------------------------| 
B|-----------------------------------| 
G|-----------------------------------| 
D|------------------------------3----| 
A|-2-----2------5-------2----5--1----| 
E|-0-0-0-0--0-0-3-0-0-0-0-0--3-------| 

E|-------------------------------------| 
B|-------------------------------------| 
G|-------------------------------------| 
D|-----------------------------10------| 
A|--2-----2-------5-----2------8-------| 
E|--0-0-0-0--0-0--3-0-0-0-0-0----------| 

E|---------------------------------------------|-----------------------------------------| 
B|---------------------------------------------|-----------------------------------------| 
G|--5---------------5-----------------8-7-5-7--|---5----------------5---------------8----| 
D|--5------7--------5-----7-----------8-7-5-7--|---5-------7--------5-----7---------8----| 
A|----0-0--7--0-0----0-0--7--0-0---------------|------0-0--7--0-0----0-0--7--0-0---------| 
E|---------------------------------------------|-----------------------------------------| 


E|--------------------------------------------|---------------------------------------| 
B|--------------------------------------------|---------------------------------------| 
G|--5---------------5---------------8-7-5-7---|---5---------------5-------------------| 
D|--5------7--------5-----7---------8-7-5-7---|---5-------7-------5------7------------| 
A|----0-0--7--0-0----0-0--7--0-0--------------|------0-0--7--0-0----0-0--7--0-0--8----| 
E|--------------------------------------------|----------------------------------6----| 

E|----------------------------------------------------------| 
B|----------------------------------------------------------| 
G|----------------------------------------------------------| 
D|----------------------------------------------------------| 
A|--2--------2----------5--------2------8-7-5-7-------------| 
E|--0--0-0--0---0--0--3--0-0--0--0-0----6-5-3-5-------------| 


E|---------------------------------------------| 
B|---------------------------------------------| 
G|---------------------------------------------| 
D|-------------------------------10------------| 
A|-2------2-------5-------2-------8---4--------| 
E|-0-0-0-0--0-0-3-0-0-0--0-0----------2--------| 

Interlude 

E|---------------------------------------| 
B|---------------------------------------| 
G|---------------------------------------| 
D|----------4-----1----------------------| 
A|----------2-----3-------------2--------| 
E|--0-0-0-0---0-0---0-0-0-1-0-1----------| 
		  

auto scroll beats size up size down change color hide chords drawings
tab show chords e-chords YouTube Clip e-chords hide all tabs e-chords go to top tab

share