Harry Potter

Harry Potter Tab

Harry Potter

Difficulty: BeginnerBeginner

by leuzemico77

tuner correct add songbook print version text version save to e-mail
chordsukulelecavacokeyboardtabbassdrumsharmonicsflute Guitar Pro
close

there isn't a video lesson for this song

chords

Harry Potter

  		let me begin by saying that i ONLY MADE THE ENDING!! this was made by a completely different person who forgot to do the ending, so i completed this by finishing it off and doing the last two verses. also please do not copy, all credit goes to me and anonymus person and no one else. this is allowed to be used for concerts, lessons, videos and video lessons as well as movies but credit of your knowledge of how to play this song, as i said, goes to anonymous and i, although the actual song is credited by the harry potter film as well. 

E|----0-3-2-0-7-5-2--0--3-2-1--|  
B|---0---------------------0-----3--I 
G|-----------------------------|  
D|-----------------------------|  
A|-----------------------------|  
E|-----------------------------|  

E|----0-3-2-0-7-10-9-8--5-8-7-6--3-0-|  
B|---0----------------------------------0-----I 
G|-----------------------------------|  
D|-----------------------------------|  
A|-----------------------------------|  
E|-----------------------------------|  

EI---3-7-3-7-3-8-7-6-2-3-7-3---3-7---I 
BI------------------------------------0--------I 
GI-----------------------------------I 
DI-----------------------------------I 
AI-----------------------------------I 
EI-----------------------------------I 

EI---3-7-3-7-3-10-9-8-5-8-7-6----3-0I 
BI-------------------------------------0-------I 
GI-----------------------------------I 
DI-----------------------------------I 
AI-----------------------------------I 
EI-----------------------------------I 

	  

auto scroll beats size up size down change color hide chords drawings
tab show chords e-chords YouTube Clip e-chords hide all tabs e-chords go to top tab

share with facebook

Search Paypal