Harpa Cristã

home > Harpa Cristã

Vida Abundante Tab

Harpa Cristã

Difficulty: nolevelnolevel

by gustsilva

tuner correct add songbook print version text version save to e-mail
chordsukulelecavacokeyboardtabbassdrumsharmonicsflute Guitar Pro
chords

Vida Abundante

  		 
E|------------6-|-10-6---1----|-8---------------|--------------|------------6-| 
B|-6--------6---|-6----3-3--4-|-----11-10-11-8--|-6-8----------|-6--------6---| 
G|-7---8--7-7-7-|----7-3----5-|-8---8--8--8--8--|-7-8-8--8---7-|-7---8--7-7-7-| 
D|-8---10-8-8-8-|-8----3-3--3-|-----8--10-10-10-|-7-7-10-10--8-|-8---10-8-8-8-| 
A|-----8--8-----|----8--------|-12--8--8--8--8--|-8-8-8--8---8-|-----8--8-----| 
E|-6---6--6-6-6-|-6--6-6-1--1-|-13--------------|--------6---6-|-6---6--6-6-6-| 
 

 
E|-10-6---1-----|-8---------------|-1-3--------|-6---5-3---3-|-6-5-3-5----| 
B|-6----3-3-----|-----11-10-11-8--|-3-4-4-4--3-|-3-------3---|-3-3-3-3--3-| 
G|----7-3----8--|-8---8--8--8--8--|-2-2-5-5--3-|-----5-3-3-3-|------------| 
D|-8----3-3--10-|-----8--10-10-10-|-3-3-3-3--3-|-5-------5-5-|-5-5-5-4--4-| 
A|----8------8--|-12--8--8--8--8--|------------|-----5-5-----|-------5--5-| 
E|-6--6-6-1-----|-13--------------|-------6--6-|-3---3-3-3-3-|-3-3-6------| 
 

 
E|-6---5-3---3-|-6-8--9--10--|------------6-|-10-6---1----|-8--------------| 
B|-3-------3-3-|-3-8--8--7---|-6--------6---|-6----3-3--4-|-----11-10-11-8-| 
G|-----5-3-3---|-0-0---------|-7---8--7-7-7-|----7-3----5-|-8---8--8--8--8-| 
D|-5-------5-5-|------7--7---|-8---10-8-8-8-|-8----3-3--3-|--------10-10-8-| 
A|-----5-5-----|-6-----------|-----8--8-----|----8--------|-12--12-8--8--8-| 
E|-3---3-3-3-3-|---11-11-10--|-6---6--6-6-6-|-6--6-6-1--1-|-13--13---------| 
 

 
E|----10-8-6--|----------| 
B|------------|----------| 
G|-10-10-8-7--|----------| 
D|-7--8-------|----------| 
A|-8--8--8-8--|----------| 
E|---------6--|----------| 
	  

Search Paypal
auto scroll beats size up size down change color hide chords drawings
tab show chords e-chords YouTube Clip e-chords hide all tabs e-chords go to top tab