Harpa Cristã

home > Harpa Cristã

Tu És Meu Tab

Harpa Cristã

Difficulty: nolevelnolevel

by gustsilva

tuner correct add songbook print version text version save to e-mail
chordsukulelecavacokeyboardtabbassdrumsharmonicsflute Guitar Pro
chords

Tu És Meu

  		 
E|-7---7---7--|-7-------7--|-5---------|-8--------|-7---7---7-|-7-------5-| 
B|------------|---------8--|-7-------8-|-7--------|-----0---8-|-5-------5-| 
G|-7---7---7--|-7-------7--|-5-------7-|-7--------|-7---7---7-|-7-------5-| 
D|------------|-----9------|---------9-|-7--------|-5---5---5-|-----------| 
A|-10--10--10-|-10------10-|-----------|----------|-----------|-----------| 
E|------------|------------|-----------|----------|-----------|-8-------8-| 
 

 
E|-5---------|----------|-7---7---7-|-7-------7-|-5-------7-|-8--------| 
B|-5-------8-|-10-------|-0---0-----|-5-------5-|-5-------5-|-5--------| 
G|---------6-|-7--------|-7---7---8-|-----------|-----------|----------| 
D|-7-------7-|-0--------|---------7-|-5-------6-|-7-------6-|-7--------| 
A|---------7-|-9--------|-10--10--9-|-7-------5-|-----------|----------| 
E|-8---------|----------|-----------|-----------|-8-------7-|-5--------| 
 

 
E|------------|-7-------3-|-3-------2-|-3--------|----------| 
B|-10--10--10-|---------5-|-3-------1-|-0--------|----------| 
G|-7---7---7--|-7---7---5-|-5---4---2-|-0--------|----------| 
D|-0---0---0--|-----------|-0-------0-|----------|----------| 
A|-9---9---9--|-10------3-|-----------|----------|----------| 
E|------------|-7---------|-----------|-3--------|----------| 
	  

Search Paypal
auto scroll beats size up size down change color hide chords drawings
tab show chords e-chords YouTube Clip e-chords hide all tabs e-chords go to top tab