Harpa Cristã

home > Harpa Cristã

Olhai Para O Cordeiro De Deus Tab

Harpa Cristã

Difficulty: nolevelnolevel

by HELON

tuner correct add songbook print version text version save to e-mail
chordsukulelecavacokeyboardtabbassdrumsharmonicsflute Guitar Pro
chords

Olhai Para O Cordeiro De Deus

(Hinário Harpa cristã)

  		


1   |   |   |   |   |   |   |   |    |   |   |   |     |   |   |   |  
E |---------------|----------------|-----------------|--------------| 
B |---------------|---------1----1-|-1---1-----------|--------------| 
G |-2-2-2-3-2-----|---0-2-3--------|-------2-----2-2-|-0------------| 
D |---------------|-3--------------|---------3-------|--------------| 
A |-------------3-|----------------|-----------------|--------------| 
E |---------------|----------------|-----------------|--------------| 



5   |   |   |   |   |   |   |   |    |   |   |   |     |   |   |   |    
E |---------------|----------------|-----------------|----------------| 
B |---------------|---------1----1-|-1---1-----------|----------------| 
G |-2-2-2-3-2-----|---0-2-3--------|-------3-2---0-0-|--------------2-| 
D |---------------|-3--------------|-----------------|-3--------------| 
A |-------------3-|----------------|-----------------|----------------| 
E |---------------|----------------|-----------------|----------------| 



9   |   |   |   |     |   |   |   |    |   |   |   |     |   |   |   |  
E |-----------------|----------------|---------0-------|--------------| 
B |-1---1-3-1-------|----------------|-------1-----3-3-|-1------------| 
G |-----------------|--------------0-|-3---3-----------|--------------| 
D |-------------3-3-|-2--------------|-----------------|--------------| 
A |-----------------|----------------|-----------------|--------------| 
E |-----------------|----------------|-----------------|--------------| 



13  |   |   |   |     |   |   |   |    |   |   |   |     |   |   |   |  
E |-----------------|----------------|-----------------|--------------| 
B |---------1-------|-----3-3-3------|-----1-----------|--------------| 
G |-2---2-3-----2-2-|-3------------3-|-2-----3-2---0-0-|--------------| 
D |-----------------|----------------|-----------------|-3------------| 
A |-----------------|----------------|-----------------|--------------| 
E |-----------------|----------------|-----------------|--------------| 



17  |   |   |   |   |   |   |   |    |   |   |   |     |   |   |   |  
E |---------------|----------------|-----------------|--------------| 
B |---------------|---------1----1-|-1---1-----------|--------------| 
G |-2-2-2-3-2-----|---0-2-3--------|-------2-----2-2-|-0------------| 
D |---------------|-3--------------|---------3-------|--------------| 
A |-------------3-|----------------|-----------------|--------------| 
E |---------------|----------------|-----------------|--------------| 



21  |   |   |   |   |   |   |   |    |   |   |   |     |   |   |   |    
E |---------------|----------------|-----------------|----------------| 
B |---------------|---------1----1-|-1---1-----------|----------------| 
G |-2-2-2-3-2-----|---0-2-3--------|-------3-2---0-0-|--------------2-| 
D |---------------|-3--------------|-----------------|-3--------------| 
A |-------------3-|----------------|-----------------|----------------| 
E |---------------|----------------|-----------------|----------------| 



25  |   |   |   |     |   |   |   |    |   |   |   |     |   |   |   |  
E |-----------------|----------------|---------0-------|--------------| 
B |-1---1-3-1-------|----------------|-------1-----3-3-|-1------------| 
G |-----------------|--------------0-|-3---3-----------|--------------| 
D |-------------3-3-|-2--------------|-----------------|--------------| 
A |-----------------|----------------|-----------------|--------------| 
E |-----------------|----------------|-----------------|--------------| 



29  |   |   |   |     |   |   |   |    |   |   |   |     |   |   |   |  
E |-----------------|----------------|-----------------|--------------| 
B |---------1-------|-----3-3-3------|-----1-----------|--------------| 
G |-2---2-3-----2-2-|-3------------3-|-2-----3-2---0-0-|--------------| 
D |-----------------|----------------|-----------------|-3------------| 
A |-----------------|----------------|-----------------|--------------| 
E |-----------------|----------------|-----------------|--------------| 



33  |   |   |   |   |   |   |   |    |   |   |   |     |   |   |   |  
E |---------------|----------------|-----------------|--------------| 
B |---------------|---------1----1-|-1---1-----------|--------------| 
G |-2-2-2-3-2-----|---0-2-3--------|-------2-----2-2-|-0------------| 
D |---------------|-3--------------|---------3-------|--------------| 
A |-------------3-|----------------|-----------------|--------------| 
E |---------------|----------------|-----------------|--------------| 



37  |   |   |   |   |   |   |   |    |   |   |   |     |   |   |   |    
E |---------------|----------------|-----------------|----------------| 
B |---------------|---------1----1-|-1---1-----------|----------------| 
G |-2-2-2-3-2-----|---0-2-3--------|-------3-2---0-0-|--------------2-| 
D |---------------|-3--------------|-----------------|-3--------------| 
A |-------------3-|----------------|-----------------|----------------| 
E |---------------|----------------|-----------------|----------------| 



41  |   |   |   |     |   |   |   |    |   |   |   |     |   |   |   |  
E |-----------------|----------------|---------0-------|--------------| 
B |-1---1-3-1-------|----------------|-------1-----3-3-|-1------------| 
G |-----------------|--------------0-|-3---3-----------|--------------| 
D |-------------3-3-|-2--------------|-----------------|--------------| 
A |-----------------|----------------|-----------------|--------------| 
E |-----------------|----------------|-----------------|--------------| 



45  |   |   |   |     |   |   |   |    |   |   |   |     |   |   |   |  
E |-----------------|----------------|-----------------|--------------| 
B |---------1-------|-----3-3-3------|-----1-----------|--------------| 
G |-2---2-3-----2-2-|-3------------3-|-2-----3-2---0-0-|--------------| 
D |-----------------|----------------|-----------------|-3------------| 
A |-----------------|----------------|-----------------|--------------| 
E |-----------------|----------------|-----------------|--------------| 



49  |   |   |   |   |   |   |   |    |   |   |   |     |   |   |   |  
E |---------------|----------------|-----------------|--------------| 
B |---------------|---------1----1-|-1---1-----------|--------------| 
G |-2-2-2-3-2-----|---0-2-3--------|-------2-----2-2-|-0------------| 
D |---------------|-3--------------|---------3-------|--------------| 
A |-------------3-|----------------|-----------------|--------------| 
E |---------------|----------------|-----------------|--------------| 



53  |   |   |   |   |   |   |   |    |   |   |   |     |   |   |   |    
E |---------------|----------------|-----------------|----------------| 
B |---------------|---------1----1-|-1---1-----------|----------------| 
G |-2-2-2-3-2-----|---0-2-3--------|-------3-2---0-0-|--------------2-| 
D |---------------|-3--------------|-----------------|-3--------------| 
A |-------------3-|----------------|-----------------|----------------| 
E |---------------|----------------|-----------------|----------------| 



57  |   |   |   |     |   |   |   |    |   |   |   |     |   |   |   |  
E |-----------------|----------------|---------0-------|--------------| 
B |-1---1-3-1-------|----------------|-------1-----3-3-|-1------------| 
G |-----------------|--------------0-|-3---3-----------|--------------| 
D |-------------3-3-|-2--------------|-----------------|--------------| 
A |-----------------|----------------|-----------------|--------------| 
E |-----------------|----------------|-----------------|--------------| 



61  |   |   |   |     |   |   |   |    |   |   |   |     |   |   |   |  
E |-----------------|----------------|-----------------|--------------| 
B |---------1-------|-----3-3-3------|-----1-----------|--------------| 
G |-2---2-3-----2-2-|-3------------3-|-2-----3-2---0-0-|--------------| 
D |-----------------|----------------|-----------------|--------------| 
A |-----------------|----------------|-----------------|--------------| 
E |-----------------|----------------|-----------------|-13-----------| 
	  

Search Paypal
auto scroll beats size up size down change color hide chords drawings
tab show chords e-chords YouTube Clip e-chords hide all tabs e-chords go to top tab