Harpa Cristã

home > Harpa Cristã

No Céu Não Entra Pecado Tab

Harpa Cristã

Difficulty: nolevelnolevel

by gustsilva

tuner correct add songbook print version text version save to e-mail
chordsukulelecavacokeyboardtabbassdrumsharmonicsflute Guitar Pro
chords

No Céu Não Entra Pecado

  		 
E|-------------3---3-3-1-3-|-1--------3--6-6-6-6-1-4-|-3-----------3-3-3-3-3-3-| 
B|----------4--4---4-3-3-3-|-3-4------4--4-4-4-3-3-6-|-4--------4--4-4-4-3-3-3-| 
G|----------0--3---3-3-3-3-|-1-3------3--0-0-----3-3-|-3--------0--3-3-3-3-1-3-| 
D|-------------------------|-1-5-------------4-3-----|-------------------------| 
A|----------6--6---6---1-1-|---6------6--6-6-6---1---|-6--------6--6-6-6---1-1-| 
E|-------------------6-----|-------------------6---6-|-------------------6-----| 
 

 
E|-1--------6--6------------|-------------11-11-11-11-10-8--| 
B|-3-4------8--8-9--8-6---6-|----------11-8--8--8--8--9--9--| 
G|-1-3---------8-10-8-7-8-7-|-0--------12-------------7--8--| 
D|-1-5------8----8--8-6-5-6-|-13-------8--8--8--8--10-------| 
A|---6------6--6-6--6-------|----------------------11-11-11-| 
E|--------------------6-6-6-|-11-------11-11-11-11----------| 
 

 
E|-6--------6--6------------|-------------11-11-11-11-10-8--| 
B|-8-8------8--8-9--8-6-4-6-|-8--------11----------9--9--9--| 
G|-8-8-----------10-8-7-5-7-|-8--------8--8--8--8-----7--8--| 
D|---8------8--8-8--8-8-8-8-|-8--------8--10-10-10-10-------| 
A|-6-6------6--6-6--6-------|-------------11-11-11-11-11-11-| 
E|--------------------6-6-6-|-11-------11-------------------| 
 

 
E|-6--------6--6-------------|------6------3-3-3-3-3-3-|-3-3------3--3-3-3-3-3-3-| 
B|-8-8------8--8-9--8-6----6-|-4----4--------------3---|-------------4-4-3-4-----| 
G|-8-8---------8-10-8-7-8--7-|-0----0------3-3-3-5-3-5-|-3-3------3--3-3-3-3-3-5-| 
D|---8------8----8--8-6-10-6-|-------------5-5-5-6---6-|-5-5------5----------5-5-| 
A|-6-6------6--6-6--6---11---|-6----6------6-6-6-6-6-6-|-6-6------6--6-6-6-6-6-6-| 
E|--------------------6-6--6-|-------------------------|-------------------------| 
 

 
E|-4--------4--4-4-4-4-4-4-|-4-4------4--4-4-4-4-4-4-|-3----6------3-3-3-3-3-3-| 
B|-3--------3--6-4-3-------|-3-3------3--6-4-3---3---|------4--------------3---| 
G|-3--------3--3-3-3-5-3-5-|-3-3---------3-3-3-5---5-|-3-----------3-3-3-5-3-5-| 
D|-3--------3--------3-3-3-|----------3--------3-3-3-|-5----5------5-5-5-6---6-| 
A|-------------------------|-------------------------|-6----6------6-6-6-6-6-6-| 
E|-------------6-6-6-6-6-6-|-6-6------6--6-6-6-6-6-6-|-------------------------| 
 

 
E|-3-3------3--3-3-3-3-4----|-8--------8--8--11-10-8--6-----| 
B|-------------4-4-6-4-3-11-|----------9--9--13-11-9--8-8-6-| 
G|-3-3------3--3-3-3-3-3-8--|-8--------8--8--8--8--8--8-8-7-| 
D|-5-5------5----------3-8--|---------------------------8-6-| 
A|-6-6------6--6-6-6-6---10-|-11-------11-11-11-11-11-6-6-6-| 
E|--------------------------|-------------------------------| 
 

 
E|-----6-8--8-8-6---4-3-3-1-|----------------------| 
B|---8-8-9--4-4-4-4-6-4-3-3-|----------------------| 
G|-8-8-8-8------0-0-5-3-3-1-|-0--------------------| 
D|-5-8---6--6-6-------------|-13-------------------| 
A|-6-6-6----------3-------1-|----------------------| 
E|----------4-4-6---4-6-6---|-11-------------------| 
	  

Search Paypal
auto scroll beats size up size down change color hide chords drawings
tab show chords e-chords YouTube Clip e-chords hide all tabs e-chords go to top tab