Harpa Cristã

home > Harpa Cristã

Lê A Bíblia Tab

Harpa Cristã

Difficulty: nolevelnolevel

by gustsilva

tuner correct add songbook print version text version save to e-mail
chordsukulelecavacokeyboardtabbassdrumsharmonicsflute Guitar Pro
chords

Lê A Bíblia

  		 
E|-----------------|-1-1-1-0-5-------|---5-----3-------|-------5-6---8-6-| 
B|-------------1-1-|-1-1---8-6-------|-6---8-6-5-------|-8-7-8-0-----5---| 
G|-------------2-0-|---2-3-5-5---5-5-|-5-5-5-7-3---5-5-|-5-5-5---5-----5-| 
D|-------------3---|-3---0-----8-8-7-|-7-7-7-7-----5-0-|---0---0-5---7-5-| 
A|---------------3-|-0-3---7-8-------|-8-8-5-5-3---7-8-|-7---7-8-7-----7-| 
E|-----------------|-----------------|-----------------|-8-7-8-----8-8---| 
 

 
E|-5------0------------|-10-10-10-8-6---13-10-|-8-5-----5---6-5-| 
B|---8-10-11-13--------|-6--6--6--6-6-8----8--|-6-6-6-8-----8-6-| 
G|-5-5-10-0--10--10-10-|----------------10----|-----5-5-5---0-5-| 
D|-----0---------10-10-|-8--8--8--8--------8--|-7-7-7-5---------| 
A|-8-7-------12--12-12-|------------8---13----|-8-8-----8-8-7-5-| 
E|---8-13-12-13--13-13-|-6--6--6--6-6-8-10-6--|-----8-5-8-------| 
 

 
E|-0---------0-6-5-3-|-5-3-5-6-8-------|-3-----------0-5-|-6---0-------8-9-| 
B|-8--6--5-6-8-5-6-5-|-6-5-6-6-6---6-6-|-5---------7-8-6-|-8---8-------6-6-| 
G|----7--5-5-0-5-5-3-|---3-5-0-----5-5-|-5---------7-0---|-0---5-----------| 
D|-10-10---0---------|-7-----8-7---7-7-|-----------8---0-|-------------7-7-| 
A|-----------7-8-7-3-|-0-3-8-----8-5-3-|-3-------3-----8-|-7-----------8-8-| 
E|-8--8--8-----------|-----------------|-----3-----6-8---|-----8-----------| 
 

 
E|-10--6---0-----|--------------| 
B|-6-------8---5-|-6------------| 
G|-----7-------5-|-5------------| 
D|-8-------10--8-|-7------------| 
A|-8---10--------|-8------------| 
E|-----6---8---8-|--------------| 
	  

Search Paypal
auto scroll beats size up size down change color hide chords drawings
tab show chords e-chords YouTube Clip e-chords hide all tabs e-chords go to top tab