Harpa Cristã

home > Harpa Cristã

Jesus O Melhor Amigo Tab

Harpa Cristã

Difficulty: BeginnerBeginner

by hebealmeida

tuner correct add songbook print version text version save to e-mail
chordsukulelecavacokeyboardtabbassdrumsharmonicsflute Guitar Pro
chords

Jesus O Melhor Amigo

  		E|---------------1-|-5---5-4-5---6-|---------3-------|-------------6-| 
B|-------------1---|-1---1---1---3-|-3-----------6-6-|-5-6-5-3-------| 
G|-------------2-2-|-------4-------|-3-------3---3-3-|-3-3-3-3-5---7-| 
D|-------------3-3-|-3---3-3-3---3-|-5-------5---5-5-|-5-5-5-3-8-----| 
A|-----------------|---------------|-------------3-3-|-3-3-3-3-7---7-| 
E|-----------------|-1---1-1-1---6-|-3-------3-------|---------8---8-| 

E|-5---------------|---5-5---5---------|-8-6-6-6-----10-10-|-8---5---5----6-| 
B|---------------3-|-1-1-1---1---13-13-|-------------6--6--|-6---6-6-6----8-| 
G|-5-----------5-3-|-2-----------------|-8-7-7-7-7---0-----|-----5---5----5-| 
D|-------------7-3-|-3-3-3---3---13-13-|---------8------6--|-7-----7--------| 
A|-8-----------8---|-------------0--0--|-8-8-8-8-8---------|----------------| 
E|-----------------|-1-1-1-1-1---13-13-|-6-6-6-6-6---7--7--|-8---8-8-8----8-| 

E|-0------------8-|-8---5-6-8---10-|-8----------0-------|-----0---------8--| 
B|-8-------6----6-|-6---6-6-6---6--|----10-8----11---11-|-11-----10-11--10-| 
G|-5--------------|-------0--------|-10------10-0----12-|-12--12-10-12-----| 
D|-----8---7----7-|-7-------7---8--|----10-8---------10-|-10--10-10-10--10-| 
A|---------8----8-|-8---8-8-8------|-12------12---------|------------------| 
E|-8--------------|-------------6--|-8----------8----8--|-8---8--8--8---8--| 

E|-6-------5---8-8-|-8-5-------5---8-8-|-10-6-3-5-6---10---|-8---5---5----6-| 
B|-8-5-6-8-6---6-6-|-6-6----8--6---6-6-|-6--3-3-3-----6----|-6---6-6-6----8-| 
G|-5-------5-------|---5-10-10-5-------|-------------------|-----5---5----5-| 
D|-------------7-7-|-7---7--8------7-7-|-8--3-5-4-5---6----|-7-----7--------| 
A|-7---5-7-8---8-8-|-8-8-8--8--8---8-8-|-------------------|----------------| 
E|---8-------------|-------------------|-6--6-6-5-3---7--7-|-8---8-8-8----8-| 

E|-3------------| 
B|-5-------6----| 
G|-3------------| 
D|---------7----| 
A|-3-------8----| 
E|--------------| 
	  

Search Paypal
auto scroll beats size up size down change color hide chords drawings
tab show chords e-chords YouTube Clip e-chords hide all tabs e-chords go to top tab