Harpa Cristã

Jesus Chorou Sobre Jerusalém

Harpa Cristã

tabs

by  GUSTSILVA

save to print version add songbook text version e-mail correct tuner
chordsukulelecavacokeyboardtabbassdrumsharmonicaflute Guitar Pro
close

there isn't a video lesson for this song

chords

Jesus Chorou Sobre Jerusalém

	  		 
E|-------------------|-8---8--8--8---------|-5-3-1-0-1---1-1-|-6---8-10-8---5----| 
B|----------------10-|-10--10-8---------10-|-3---1-1-1-------|-6---6-6--6---6----| 
G|-------------10-10-|-10--10-9--10--10-10-|-3---2-0-2---2-2-|-7------------5-10-| 
D|----------------10-|------------------10-|---------3---3-3-|-----7-8--7-----7--| 
A|-------------12----|-8---8--10-12--12----|-----3-3---------|-8---8-8--8---8-8--| 
E|-------------13-13-|---------------13-13-|-6---------------|-------------------| 
 

 
E|-------------------|-8---8--8--8------5-|--------------6-10-|-8---5---5-------| 
B|-8--------------10-|-10--8--8---------6-|-10-8-6-5-6-----6--|-6---6-6-6---8-8-| 
G|-9-----------10-10-|-10--9--9--10--10-5-|-7----5-5-5---7----|---------5---9-9-| 
D|-10----------7--10-|-----------7---7----|-8----7-5-7---8-8--|-7-----7-----8-8-| 
A|-------------8--8--|-8---10-10-----8--8-|----------8--------|-----8-----------| 
E|-8-----------------|--------------------|-6----8-8-----6-6--|-8---8-8-8---8-8-| 
 

 
E|-------------8-----|------------------|-6---10------10-10-|-8---8-10-8---6-5-| 
B|-------------10-11-|-10--10-10-8---10-|-----6-------6--6--|-6---6-6--6---5-6-| 
G|-10-------------12-|-10--10-10-9---8--|-7-----------------|--------------5-5-| 
D|-7-----------10-10-|-10--10-10-10--10-|-8---8-------8--8--|-7---7-8--7---5---| 
A|-8-----------8--8--|-8---8--8------8--|-------------------|-8---8-8--8-----8-| 
E|-------------------|-----------8------|-6---6-------6--6--|------------------| 
 

 
E|-0-----------8-6-|-5---5-5-3---5-|-6---10--8-----5-|-8---5---5---3-3-| 
B|-8-----------5-8-|-6---6-6-5---4-|-3---6---6---6-6-|-6---6-6-6---5-5-| 
G|-5-----------5-5-|-5---5-5-5---5-|-3-------------5-|---------5---3-3-| 
D|-----------------|-------------3-|-----8---7---7---|-7-----7---------| 
A|-----------------|-8---8-8-3-----|---------8---8-8-|-8---8-5-----3-3-| 
E|-8-----------8-8-|---------------|-6---6-----------|---------8-------| 
 

 
E|--------------| 
B|-6------------| 
G|--------------| 
D|-7------------| 
A|-8------------| 
E|--------------| 
		  

See also:

tabs Heloisa Rosa - Há Um Lugar - Completo tabs Diante do Trono - A Ele a Glória tabs Heloisa Rosa - Jesus é o Caminho tabs Toque no Altar - Deus De Promessa tabs Lázaro - Eu Te Amo Tanto tabs Oficina G3 - Até quando?
e-chords

Other versions:

tabs Harpa Cristã - Jesus Chorou Sobre Jerusalém
auto scroll beats size up size down change color hide chords drawings
tab show chords e-chords YouTube Clip e-chords hide all tabs e-chords go to top tab

share