Harpa Cristã

Jesus À Porta Do Coração

Harpa Cristã

tabs Advanced advanced

by  FERNSANTANA

save to print version add songbook text version e-mail correct tuner
chordsukulelecavacokeyboardtabbassdrumsharmonicaflute Guitar Pro
close

there isn't a video lesson for this song

chords

Jesus À Porta Do Coração

	  		E|------------9--7-----0--|-0-2-4-2-----2-4-5-4--|-4---5-0---12-12--9--7--| 
B|--------9---10-9---9-0--|-0-4-5-4-----4-5-7-5--|-5---7-12--0--10--10-9--| 
G|-9---9--9---9--9---9-1--|-1-4-4-4-----4-4-4-4--|-4---4-13--13-----9--9--| 
D|-9---9--9----------9-2--|---4-2----------------|--------------11--------| 
A|-11--11--------7---7----|-------2-----2-----7--|-7---7--------12--12-7--| 
E|-12--12-12--12----------|---------------7-7----|-------12--12-----------| 

E|-9--0--9-7------7------0--|-2-4-5-4--2--------9------| 
B|-10-10------------10-7-0--|-4-5-7-5--4--9--10----12--| 
G|-9--6--9-9------8-8--8-1--|-4-4-4-4--4--9-----9--9---| 
D|-------7-------------7-2--|-------------9--11--------| 
A|-0--0--0-11-----9-9-------|-2--------2--------12-11--| 
E|---------7------7-7--7----|---7-7-7-----12----12-12--| 

E|-9--11-12-11--9---------2--|-4---4-5--5---------9---| 
B|-----------------12--9--4--|-5---5-4--4--12--12-----| 
G|-9--9--9--9---9--9---9--4--|-4---4-4--4--9---9--9---| 
D|----9--11-9----------9-----|-------4--4--9---9------| 
A|-12-12-12-12--12-11-----2--|-7---7-------11--11-12--| 
E|-----------------12--12----|------------------------| 

E|-12-11-9-7---------------0---|----------------------| 
B|----0-----------10-9--7--0---|----------------------| 
G|-9--9--9-9------8--8---------|----------------------| 
D|-11----7--------------9------|----------------------| 
A|-0--0--0-11-----9--11-12-11--|----------------------| 
E|---------7------7--7--7--12--|----------------------| 
		  

See also:

tabs Heloisa Rosa - Há Um Lugar - Completo tabs Diante do Trono - A Ele a Glória tabs Heloisa Rosa - Jesus é o Caminho tabs Toque no Altar - Deus De Promessa tabs Lázaro - Eu Te Amo Tanto tabs Oficina G3 - Até quando?
e-chords

Other versions:

tabs Harpa Cristã - Jesus À Porta Do Coração
auto scroll beats size up size down change color hide chords drawings
tab show chords e-chords YouTube Clip e-chords hide all tabs e-chords go to top tab

share