Harpa Cristã

home > Harpa Cristã

Hino Da Independência Tab

Harpa Cristã

Difficulty: nolevelnolevel

by gustsilva

tuner correct add songbook print version text version save to e-mail
chordsukulelecavacokeyboardtabbassdrumsharmonicsflute Guitar Pro
chords

Hino Da Independência

  		 
E|-------------5-2-|---------------|------2---------10-|-9----9--10---10-| 
B|-----------------|-3---3---3---3-|-5-------3---10----|-----------------| 
G|-----------------|---------------|-------------------|-----------------| 
D|-----------------|---------------|-------------------|-----------------| 
A|-----------------|---------------|-------------------|-----------------| 
E|-----------------|---------------|-------------------|-----------------| 
 

 
E|-9-----------7----|-----0-------7----|-------------7----|-----0-------7----| 
B|-----10---10---10-|----------10---10-|-7--------10---10-|----------10---10-| 
G|------------------|-12---------------|-----7------------|-12---------------| 
D|------------------|------------------|------------------|------------------| 
A|------------------|------------------|------------------|------------------| 
E|------------------|------------------|------------------|------------------| 
 

 
E|----------------7-|-9-------7---9-10-|-12-12-10-9-7-5-4---|-0-5-5-4-2-0-------| 
B|-7-----------10---|------------------|------------------7-|-------------3-2-0-| 
G|-----7------------|------------------|--------------------|-------------------| 
D|------------------|------------------|--------------------|-------------------| 
A|------------------|------------------|--------------------|-------------------| 
E|------------------|------------------|--------------------|-------------------| 
 

 
E|--------------|--------------|-------------5-5-|-7---5---------5-| 
B|--------------|--------------|-----------------|-------------5---| 
G|-2------------|--------------|-----------------|-----------------| 
D|--------------|--------------|-----------------|-----------------| 
A|--------------|--------------|-----------------|-----------------| 
E|--------------|--------------|-----------------|-----------------| 
 

 
E|-------------5-5-|-7---5----5----5-|-3---2-------2-2-|-2----2--2---4-6-| 
B|-8---7-----------|-------------5---|-----------------|-----------------| 
G|-----------------|-----------------|-----------------|-----------------| 
D|-----------------|-----------------|-----------------|-----------------| 
A|-----------------|-----------------|-----------------|-----------------| 
E|-----------------|-----------------|-----------------|-----------------| 
 

 
E|-7-9-10------9-7-|---------------0-|-----10-10-12-10-9-7-|----10-9-7-5-3-2-0-| 
B|-----------------|-10-------8--7---|---------------------|-10----------------| 
G|-----------------|-----------------|-7-------------------|-------------------| 
D|-----------------|-----------------|---------------------|-------------------| 
A|-----------------|-----------------|---------------------|-------------------| 
E|-----------------|-----------------|---------------------|-------------------| 
 

 
E|--------------| 
B|--------------| 
G|--------------| 
D|-12-----------| 
A|--------------| 
E|--------------| 
	  

Search Paypal
auto scroll beats size up size down change color hide chords drawings
tab show chords e-chords YouTube Clip e-chords hide all tabs e-chords go to top tab