Harpa Cristã

home > Harpa Cristã

De Valor Em Valor Tab

Harpa Cristã

Difficulty: BeginnerBeginner

by adalgomes

tuner correct add songbook print version text version save to e-mail
chordsukulelecavacokeyboardtabbassdrumsharmonicsflute Guitar Pro
chords

De Valor Em Valor

  		E|-----------4-|-8---9---8-|-4---------4-|-6---4-----|-4-------3---|-----4---8-| 
B|---------4---|-4---6---4-|---------8---|-6---6---6-|-6-------4-6-|-4-------4-| 
G|---------5-5-|-----------|-5-------5-5-|---------6-|-----------6-|-5---5-----| 
D|-------------|-----6---6-|-----6---6---|-----6---6-|-----6---6---|-----6---6-| 
A|-------------|-----------|-------------|-4---------|-4-----------|-----------| 
E|-------------|-4---------|-4-----------|-----------|-------------|-4---------| 

E|-8---6-----|-6---------4-|-8---9---8-|-4---------4-|-6---4-----|-4-------3---| 
B|---------6-|---------4---|-4---6---4-|---------8---|-6---6---6-|-6-------4-6-| 
G|-7---7---7-|-6-------5-5-|-----------|-5-------5-5-|---------6-|-----------6-| 
D|---------8-|-5-----------|-----6---6-|-----6---6---|-----6---6-|-----6---6---| 
A|-8---------|-6-----------|-----------|-------------|-4---------|-4-----------| 
E|-6---------|-------------|-4---------|-4-----------|-----------|-------------| 

E|-----9---8-|-6---------|-4-------11-11-|-11--9---8--|-6-------8-6-|---------9--| 
B|-4---6-----|-----6---8-|-1-------9--9--|-8---8---8--|-8-------8-8-|-9---11--9--| 
G|-5-------8-|-7---7---6-|-1-------------|-----10--8--|-6-------8-6-|-8---8---10-| 
D|-----6---6-|-----8---8-|---------10-10-|-8----------|-------------|-10--11-----| 
A|-----------|-8-------6-|---------11-11-|------------|-6-------6-6-|-11--11--11-| 
E|-4---------|-6---------|-4-------------|-11--11--11-|-------------|------------| 

E|-8-------8--8-|-8---6-----|-----------|-6---------4-|-8-------8-|-4---------4-| 
B|-9------------|---------9-|-6---8---9-|---------4---|-4-------4-|---------8---| 
G|-8-------8--8-|-7---7---7-|-7---7---7-|-6-------5-6-|-----------|-5-------5-5-| 
D|------------6-|-----------|-8---8---6-|-5-------6-6-|-6-------6-|-6-------6-6-| 
A|-11------11---|-8---8---8-|-----------|-6-----------|-----------|-------------| 
E|--------------|-6---6---6-|-6---6---6-|---------4-4-|-4---4---4-|-4-------4-4-| 

E|-6---4-----|-4-----------|---------8-|-6---1---3-|-4--------| 
B|-6---6---6-|-6-------8-6-|-4-------4-|-3---3---2-|-1--------| 
G|-----6---6-|-6-------8-6-|-5---------|-----3---3-|-1--------| 
D|-6-------6-|---------6-6-|-6-------6-|-3-------1-|----------| 
A|-4---4---4-|-4-----------|-----------|-----1-----|----------| 
E|-----------|---------9-9-|-4---4---4-|-6---------|-4--------| 
	  

Search Paypal
auto scroll beats size up size down change color hide chords drawings
tab show chords e-chords YouTube Clip e-chords hide all tabs e-chords go to top tab