Harpa Cristã

home > Harpa Cristã

Cristo Pensa Em Mim Tab

Harpa Cristã

Difficulty: nolevelnolevel

by gustsilva

tuner correct add songbook print version text version save to e-mail
chordsukulelecavacokeyboardtabbassdrumsharmonicsflute Guitar Pro
chords

Cristo Pensa Em Mim

  		 
E|-------8--9------------------4---|----------8-6-4-9-0------| 
B|-9--11--------9--9--9----------4-|-4-4-6-7--4-7-6-6-11-9---| 
G|-10-11-11-10--10-10-10-11-10-5-5-|-5-5-6-5----------0--10--| 
D|-11-11--------11-11-11-13-11-6-6-|-4-4-6-6--6-6-6-6----6---| 
A|----9--11-11-----------11-11-----|-----8-6------4----------| 
E|-9-----11-9---9--9--9--9--9--4-4-|----------4-4---9-9--9---| 
 

 
E|---6-8-9--8-9-11-9-6----9-|-9-8-6-11--9-8-6-8-6-4--4-|-4-4---------4--------4-| 
B|-9-8-7-6----6-7--7-7-9--6-|-6-6-6-9---9-9-8-8-8-4--7-|-6-6-------6-6--------6-| 
G|----------8--------6-10---|---------------6-8-6-5----|-----6-6-6-6-6-6-6-6----| 
D|-6-6-6-6--6-6-8--8---11-6-|-8-7-6-10--8-6------------|-----------6------------| 
A|--------------9--9-9------|-------6---6-6-6-6-6------|-----4-4-4-4-4-4-4-4----| 
E|-------9--9-9--------9--9-|-6-8-9---------------4----|------------------------| 
 

 
E|-9-9----------9---------------|-9--9--9--9--8----------------------| 
B|-7-7-------11--------------9--|----------------11-11-9-----------6-| 
G|-----------11-10-10-11-10--10-|-10-10-10-10-13-11-11-10----------6-| 
D|-----8-8-8-----------------11-|-------------8--10-11-11-11-11-11-6-| 
A|-----9-9-9----11-11-13-11-----|-11-11-11-11------------------------| 
E|--------------9--9--9--9---9--|-9--9--9--9--9--9--9--9--9--9--9--9-| 
 

 
E|----------------------4-|---------------4-------4-| 
B|-6-4------6--4----------|-6-6-6-4-2-4-6-6-------6-| 
G|-6-6------6--5--------5-|-6-6-6-5-3-5-6-6-6-6-6---| 
D|-6-5-5-5-----6-6-6-6--6-|-6-6-6-6-6-6-6-----------| 
A|-6-6-6-6-------6--------|-4-4-4-------4-4-4-4-4---| 
E|-----------------8-4--4-|-------4-4-4-------------| 
 

 
E|-9-9----------9---------------|-9--9--9--------9---------------| 
B|-7-7-------11--------------9--|----------11-9-----9--6---------| 
G|-----------11-10-10-11-10--10-|-10-10-10-11-10-10-10-6-------6-| 
D|-----8-8-8-----------------11-|----------11-11----11-6-6-6-6-8-| 
A|-----9-9-9----11-11-13-11-----|-11-11-11-------11--------------| 
E|--------------9--9--9--9---9--|-9--9--9--9--9--9--9--9-9-9-9---| 
 

 
E|----------------------|----------------------| 
B|-6-6------4-----------|----------------------| 
G|-6-6------5--6-----6--|----------------------| 
D|-6-6-6-6-----6-6-8-6--|----------------------| 
A|-------------8-8-9-8--|----------------------| 
E|-4-4-4-4-----9-9-9-9--|----------------------| 
	  

Search Paypal
auto scroll beats size up size down change color hide chords drawings
tab show chords e-chords YouTube Clip e-chords hide all tabs e-chords go to top tab