Harpa Cristã

home > Harpa Cristã

Breve Jesus Há De Vir Tab

Harpa Cristã

Difficulty: nolevelnolevel

by gustsilva

tuner correct add songbook print version text version save to e-mail
chordsukulelecavacokeyboardtabbassdrumsharmonicsflute Guitar Pro
chords

Breve Jesus Há De Vir

  		 
E|---5-1----------10-10-10--------|-5---5--------0---------| 
B|-------13-10-------11-11-13-----|-1---1-13--13-8---------| 
G|-------10----10-10-10-10-10--10-|-------10--10-------0---| 
D|-3-----10-------0--------10-----|-------10--10-------10--| 
A|-------12----------------12-----|-------12--12-----7-7---| 
E|-1-----13-------6-----13-13-----|-1-----13--13-8---------| 
 

 
E|---5-1----------10--10--------|-5---5-0--0--1--------|----------------------| 
B|-------13-10----6---11-13-----|-------8--8--1--------|----------------------| 
G|-------10----10-----10-10--10-|-5---5-------2--------|----------------------| 
D|-3-----10--------------10-----|-------8--8--3--------|----------------------| 
A|-------12--------------12-----|-8-----7-----3--------|----------------------| 
E|-1-----13-------6---13-13-----|-8-----8-----1--------|----------------------| 
	  

Search Paypal
auto scroll beats size up size down change color hide chords drawings
tab show chords e-chords YouTube Clip e-chords hide all tabs e-chords go to top tab