Harpa Cristã

Aleluia! Já Creio

Harpa Cristã

tabs

by  GUSTSILVA

save to print version add songbook text version e-mail correct tuner
chordsukulelecavacokeyboardtabbassdrumsharmonicaflute Guitar Pro
close

there isn't a video lesson for this song

chords

Aleluia! Já Creio

	  		 
E|-----------|-3---3---3-|-3---5---7-|-7---5-----|-5---------|------------| 
B|---------3-|-3---3---3-|-----8---8-|-8---8---8-|-7---------|-10--10--10-| 
G|---------4-|-4---4---4-|-4---5---7-|-7---5---4-|-7-------7-|-7---7---7--| 
D|---------5-|-5---5---5-|-5---5---5-|-5---5---5-|---------0-|-0---0---0--| 
A|-----------|-----------|-----------|-----------|-5-------9-|-9---9---9--| 
E|-----------|-----------|-----------|-----------|-----------|------------| 
 

 
E|-5---7---8-|-8---7---5-|-7-------10-10-|-10--10--10-|-12--10--7--|-7---7---7--| 
B|-7---8---7-|-----0---7-|-8-------8--8--|-8---8---8--|-8---8---8--|-8---8---8--| 
G|-5---7---7-|-7---7---7-|-7-------0--0--|-0---0---0--|-0---0---7--|-7---7---7--| 
D|-----9---7-|-7---0---0-|---------9--9--|-9---9---9--|-10--9------|------------| 
A|-----------|-----------|-10------------|------------|---------10-|-10--10--10-| 
E|-----------|-10--------|---------------|------------|------------|------------| 
 

 
E|-8---7---5-|-----------|-5---0-----|---------5-|-7-------10-10-|-10--10--10-| 
B|-8-------7-|-8---8---8-|-5---8---5-|-0---8---7-|-8-------8--8--|-8---8---8--| 
G|-9---7---5-|-4---4---4-|-5---0---5-|-7---7---7-|-7-------0--0--|-0---0---0--| 
D|---------0-|-----------|---------5-|-0---9-----|---------9--9--|-9---9---9--| 
A|-10--------|-7---7---7-|-----------|-10--5---5-|-10------------|------------| 
E|-----------|-----------|-8---8---8-|-----------|---------------|------------| 
 

 
E|-12--10--7--|-7---7---7--|-8---7---5-|-----------|-5---0-----|-----3---5-| 
B|-8---8---8--|-8---8---8--|-8-------7-|-8---8---8-|-5---8---5-|-0---3---3-| 
G|-0---0---7--|-7---7---7--|-9---7---5-|-4---4---4-|-5---0---5-|-7---4---5-| 
D|-10--9------|------------|---------0-|-----------|---------5-|-5---------| 
A|---------10-|-10--10--10-|-10--------|-7---7---7-|-----------|-5---5---5-| 
E|------------|------------|-----------|-----------|-8---8---8-|-----------| 
 

 
E|-3--------| 
B|-3--------| 
G|-4--------| 
D|----------| 
A|----------| 
E|-3--------| 
		  

See also:

tabs Oficina G3 - Depois Da Guerra tabs Atmosfera de Adoração - Aleluia tabs Heloisa Rosa - Há Um Lugar - Completo tabs Oficina G3 - Perfeito Amor tabs Voz da Verdade - Projeto no derserto tabs Fernandinho - Seu Sangue
e-chords

Other versions:

tabs Harpa Cristã - Aleluia! Já Creio
auto scroll beats size up size down change color hide chords drawings
tab show chords e-chords YouTube Clip e-chords hide all tabs e-chords go to top tab

share