Harpa Cristã

home > Harpa Cristã

Adoração Reconhecida Tab

Harpa Cristã

Difficulty: nolevelnolevel

by gustsilva

tuner correct add songbook print version text version save to e-mail
chordsukulelecavacokeyboardtabbassdrumsharmonicsflute Guitar Pro
chords

Adoração Reconhecida

  		 
E|----------------|-7---9---10-----|---------0---5-|-2------------| 
B|-7---7---8---10-|-----8---7---10-|-10------3---2-|-3------------| 
G|-7---7---7---7--|-7---0-------7--|-7-------2---2-|-2------------| 
D|-7---7---9------|---------7---7--|-7-------------|-0------------| 
A|---------10--9--|-10--7-------9--|-9----10-----0-|--------------| 
E|-10--10---------|---------10-----|---------------|--------------| 
 

 
E|-2---2---3---5-|-7---9---10-----|---------0---5-|-2------------|---------0---2-| 
B|-3---3---3---3-|-----8---7---10-|-10------3---2-|-3------------|-3---3---2---3-| 
G|-2---2---4-----|-7---0-------7--|-7-------2---2-|-2------------|---------2---2-| 
D|-0---0---5---4-|---------7---7--|-7-------------|--------------|-4---4-------0-| 
A|---------------|-10--7-------9--|-9----10-----0-|-5------------|-5---2---0-----| 
E|---------------|---------10-----|---------------|--------------|---------------| 
 

 
E|-3---2---0-----|-2---2---3---5---|-7---5---3---2-|-3-------7---9-| 
B|-3---3---2---3-|-3---3---3---1---|-0---2---3---3-|-3---10------8-| 
G|-4---2---0-----|-2---2---0---0---|-0-------4---2-|-0---7---7---0-| 
D|-----0-------4-|---------------4-|-----2-------0-|-----0---------| 
A|---------0---5-|-5---3---2---0---|-----0-----4---|-2---9---10--7-| 
E|-7-------------|-----------------|-3-------7-----|---------------| 
 

 
E|-10-------------|---------0-----|--------------|--------------| 
B|-7---10--8---7--|-10----------7-|--------------|--------------| 
G|-----7---9---7--|-7-------7---6-|-7------------|--------------| 
D|-7---7---7---7--|-7-------7---7-|-0------------|--------------| 
A|-----9----------|-9----10-----0-|-9------------|--------------| 
E|-10------9---10-|---------------|--------------|--------------| 
	  

Search Paypal
auto scroll beats size up size down change color hide chords drawings
tab show chords e-chords YouTube Clip e-chords hide all tabs e-chords go to top tab