Harpa Cristã

home > Harpa Cristã

A Descisão Tab

Harpa Cristã

Difficulty: BeginnerBeginner

by andrsouza

tuner correct add songbook print version text version save to e-mail
chordsukulelecavacokeyboardtabbassdrumsharmonicsflute Guitar Pro
chords

A Descisão

  		E|-------------3---5-7----|-3---5-7---7--8---7---------|-7---5-3-----3---5-7----| 
B|----------3--3---7-8----|-3---7-8---8--10--8--10--8--|-8---7-3--3--3---7-8----| 
G|-------------4---7-7--7-|-4---7-7---7--7---7--9---7--|-7---5-4-----4---7-7--7-| 
D|----------0--------5--0-|---------------------10--9--|-------------------5--0-| 
A|-----------------5------|-----5-10--10-9---10--------|-----5----5------5------| 
E|-------------3----------|-3-------------------8---10-|-10----3-----3----------| 

E|-3---5-7---7--8---7---------|-7---5-3-----7---8-----| 
B|-3---7-8---8--10--8--10--8--|-8---7-3-----8---10----| 
G|-4---7-7---7--7---7--9---7--|-7---5-4-----7---------| 
D|---------------------10--9--|-----------------0-----| 
A|-----5-10--10-9---10--------|-----5-------10--9-----| 
E|-3-------------------8---10-|-10----3------------3--| 

E|-3---5-7--7--8---7---------|-7---5-3--10-10--10-10--10-| 
B|-0---7-3--8--10--8--10--8--|-8---7-3--12-12--12-----12-| 
G|-7---7----7--7---7--9---7--|-7---5-4--0--0---0--12--0--| 
D|-5---0--------------10--9--|-------5--9--9---9--9---9--| 
A|----------10-9---10--------|-----5---------------------| 
E|-------3------------8---10-|-10----3-------------------| 

E|-12--10-7---10-10--10-10--10-|-12--10-7------7---8-----| 
B|-8---8--8---12-12--12-----12-|-8---8--8------8---10----| 
G|--------7---0--0---0--12--0--|--------7------7---------| 
D|-10--9------9--9---9--9---9--|-10--9-------------0-----| 
A|--------10-------------------|--------10-----10--9-----| 
E|-----------------------------|----------------------3--| 

E|-3---5-7--7--8---7--5----|-7---5-3--------------| 
B|-0---7-3--8--10--8--5--8-|-8---7-3--------------| 
G|-7---7----7--7---7--5--7-|-7---5-4--------------| 
D|-5---0-----------------9-|-------5--------------| 
A|----------10-9---10----5-|-5---5----------------| 
E|-------3------------8----|-------3--------------| 
	  

Search Paypal
auto scroll beats size up size down change color hide chords drawings
tab show chords e-chords YouTube Clip e-chords hide all tabs e-chords go to top tab