Hans Zimmer

home > Hans Zimmer

Oogway Ascends Tab

Hans Zimmer

Difficulty: BeginnerBeginner

by robepoiel

tuner correct add songbook print version text version save to e-mail
chordsukulelecavacokeyboardtabbassdrumsharmonicsflute Guitar Pro
chords

Oogway Ascends

	  
Tabbed by:Prendki 

e|---------------------------------------------------------------------------| 
B|---------------------------------------------------------------------------| 
G|-------2-----------2-----------2-----------2-------------------------------| 
D|----3-----3-----3-----3-----3-----3-----3-----3----------------------------| 
A|-5-----------5-----------5-----------5-------------------------------------| 
E|---------------------------------------------------------------------------| 

e|--------------1------10-------8-----8------5------5-----3--------5-3-----1-----------------1------3------| 
B|-3------------------------------------------------------------3----------------3-------------------------| 
G|-------2---------2---------------5-----5-------2-----2-----3----------3-----3--------2--------2------2---| 
D|----0-----0---3-------0-------7------------3------------3--------3-3-----3-----0--0-----0--0------0------| 
A|---------------------------------------------------------------------------------------------------------| 
E|---------------------------------------------------------------------------------------------------------| 

e|-1--------5-----13------12-----8p5--3-----5----8-----5------3-------1----------3---------| 
B|-----3------------------------------------------------------1---1---3----1-----1----1----| 
G|---2---2-----2------10---9-------------3----3-----5-----5-----0---0---0-----0----0-----0-| 
D|-0--------3-----12-------------5----3----------5-----------------------------------------| 
A|------------------------------------------------------------3-------3----------3---------| 
E|-----------------------------------------------------------------------------------------| 

e|-5--8--10-----------10---------8---8---5---5----------------6-----5-5----------1-----------| 
B|--------------6------------6-----------------------3---3--------3-------3-----3------------| 
G|-2--5-------7---7-------7------------5---5---------2-2---2----3-------2---2--2-------------| 
D|-3--7---0--------------------------7-------3-------0--------5-------3-------0--------------| 
A|------------------------------------------------3------------------------------------------| 
E|-------------------------------------------------------------------------------------------| 

e|-----------1----------------------------------------1-----10-----| 
B|-1---1/3-------3----1-------1------------------------------------| 
G|------------------------2-------0-------------2--------2-------7-| 
D|-----0------------------0------------3-----3-----3--0------0-----| 
A|------------------------0---------------5------------------------| 
E|-----------------------------------------------------------------| ... 



End: 
e|-----------1-----------------------------| 
B|-1---1/3-------3----1-------1------------| 
G|------------------------2-------0------2-| 
D|-----0------------------0------------3-3-| 
A|------------------------0--------------5-| 
E|-----------------------------------------| 

************************************ 

| /   slide up 
| \   slide down 
| h   hammer-on 
| p   pull-off 
| ~   vibrato 
| +   harmonic 
| x   Mute note 
| b   Bend 
| pb  Pre-bend 
| br  Bend release 
| pbr Pre-bend release 
| brb Bend release bend 

************************************ 
	  

there isn't a video lesson for this song

request
Search
auto scroll beats size up size down change color hide chords drawings
tab show chords e-chords YouTube Clip e-chords hide all tabs e-chords go to top tab