Hans Zimmer

All Of Them

Hans Zimmer

tabs

by  HUGO_RODRIGUES

save to print version add songbook text version e-mail correct tuner
chordsukulelecavacokeyboardtabbassdrumsharmonicaflute Guitar Pro
close

there isn't a video lesson for this song

chords

All Of Them

	  		
Tuning: EADGBe 
 Flute Intro 0:05 - 0:24 
e|---------------------------------------------------------------------------| 
B|---------------------------------------------------------------------------| 
G|---------------------------------------------------------------------------| 
D|------15------14-15--17--------15-14--15----12-----------------------------| 
A|-12-----------------------------------------12-----------------------------| 
E|--------------------------------------------10-----------------------------| 

 Moya Brennan Part 0:25 - 1:57 
e|--------------------------------------------|------------------------------| 
B|--------------------------------------------|------------------------------| 
G|-----10----7--9-------10-9-7---------9------|----10----12---10--9----------| 
D|--7------------------------------10-----7---|-7----------------------------| 
A|--------------------------------------------|------------------------------| 
E|--------------------------------------------|------------------------------| 

e|------------------------|-------------------------|----------------------------| 
B|------------------------|-----10----11--10--------|----------------------------| 
G|-10-9-7----9--10--12----|-------------------12----|-12--10-9-12--------9-------| 
D|------------------------|-10----------------------|----------------10-----7----| 
A|------------------------|-------------------------|----------------------------| 
E|------------------------|-------------------------|----------------------------| 

e|-------------------------------------------------| 
B|-------------------------------------------------| 
G|----10---12-10----10--9--------------------------| 
D|-7-----------------------12---10-----12----------| 
A|----------------------------------12-------------| 
E|-------------------------------------------------| 

 "Tell me now, what you see?" melody 2:27 - 4:08 
e|----------------------------------|----------------|---------------------------| 
B|----------------------------------|----------------|---------------------------| 
G|----------------------------------|----------------|---------------------------| 
D|-------------------5--------------|----------------|-------------------5-------| 
A|-5-7-8----5-7-8-------8--7-5------|---5-7----5--7--|-5-7-8----5-7-8-------8-7--| 
E|-----------------------------8----|-8--------------|---------------------------| 
  
e|----------------------|-------------------------------------| 
B|----------------------|---------------------8---------------| 
G|----------------------|-7-9-10----7-9-10-------10---9-7-5---| 
D|-----------0---0-2----|-------------------------------------| 
A|---0-1---3---3--------|-------------------------------------| 
E|-3--------------------|-------------------------------------| 
  
e|----------------|-------------------------------------|-----------------| 
B|----------------|---------------------8---------------|-----------------| 
G|-5-7-9---10--9--|-7-9-10----7-9-10-------10---9-7-5---|-5-7-9----7--9---| 
D|----------------|-------------------------------------|-----------------| 
A|----------------|-------------------------------------|-----------------| 
E|----------------|-------------------------------------|-----------------| 
  
  (violin solo) 
e|-----------------------------------|-----------------------|-------------------| 
B|---7-8------7-8----10--8--7--------|-----7----8--7---------|----------7--------| 
G|-9--------9-----------------9-7----|-7-9------------9-7-5--|-5-7-9--------9----| 
D|-----------------------------------|-----------------------|-------------------| 
A|-----------------------------------|-----------------------|-------------------| 
E|-----------------------------------|-----------------------|-------------------| 
  
 Strings part 5:32 - 6:18 
e|------------------|----------------------------------|------------------|--------------------| 
B|------15--13--15--|--15-15---13--15------------------|------15--13--15--|--15-15---13--------| 
G|------------------|------------------14------12------|------------------|---------------14---| 
D|-12---------------|------------------------------15--|-12---------------|--------------------| 
A|------------------|----------------------------------|------------------|--------------------| 
E|------------------|----------------------------------|------------------|--------------------| 
  
e|------------------|------------------|-13---12------10--|----------------| 
B|------15--13--15--|--15-15---17------|----------10------|----6--5--------| 
G|------------------|--------------14--|------------------|-7---------6----| 
D|-12---------------|------------------|------------------|----------------| 
A|------------------|------------------|------------------|----------------| 
E|------------------|------------------|------------------|----------------| 
  
 "Tell me now" part again 6:18 - 7:09 
e|--------------------------------|----------------|-----------------------------------| 
B|--------------------------------|----------------|---------------------8-------------| 
G|--------------------------------|----------------|-7-9-10----7-9-10-------10--9-7-5--| 
D|-------------------5------------|----------------|-----------------------------------| 
A|-5-7-8----5-7-8-------8--7-5----|---5-7----8--7--|-----------------------------------| 
E|-----------------------------8--|-8--------------|-----------------------------------| 

e|-----------------| 
B|-----------------| 
G|-5-7-9----10--9--| 
D|-----------------| 
A|-----------------| 
E|-----------------| 

OUTRO 
 Strings part 7:10 - 7:59 
                                                                           x2 
e|------------------|------------------|------------------|------------------| 
B|------------------|-------1----------|------------------|------------------| 
G|--2----2--0--2----|--0----0--0--2----|--2----2--0--2----|--0---------------| 
D|--3----3--2--3----|--2----2--2--3----|--3----3--2--3----|--2----3--2--0----| 
A|--5----5--3--3----|--3-------3--5----|--5----5--3--3----|--3----------0----| 
E|----------0-------|------------------|----------0-------|------------------| 
  
 Choir and brass part 8:00 - 8:24 
e|---------------------|-------8------------|---------------------|-------------------| 
B|-10----10--8---10----|-8-----8--8---10----|-10----10--8---10----|-8-----------------| 
G|-10----10--9---10----|-9-----9--9---10----|-10----10--9---10----|-9-----10--9--7----| 
D|-12----12--10--10----|-10-------10--12----|-12----12--10--10----|-10-----------7----| 
A|---------------------|--------------------|---------------------|--------------8----| 
E|---------------------|--------------------|---------------------|-------------------| 

 Horn part 8:29 - 8:51 
e|------------------|---------------------|--------8--10----|-------------------| 
B|-----10--8--10----|---------------------|----10-----11----|-------------------| 
G|--7---------------|------10----9-9-7----|-7---------10----|-12--10----9--7----| 
D|------------------|--10-----------------|-----------------|-------------------| 
A|------------------|---------------------|-----------------|-------------------| 
E|------------------|---------------------|-----------------|-------------------| 

 Choir part 8:53 - 9:39 
e|-----10--8---10----|-10--10----8--10-----------------|-----10--8---10------| 
B|-----10--10--11----|------------------10-------------|-----10--10--11------| 
G|-----10--11--12----|------------------10----12--10---|-----10--11--12------| 
D|-12----------------|------------------12-------------|-12------------------| 
A|-------------------|---------------------------------|---------------------| 
E|-------------------|---------------------------------|---------------------| 
  
e|-10--10----8--------|-----10--8----10----|-10--10----12------|-13----13-12-10--| 
B|--------------10----|-----10--10---11----|---------------10--|-----------------| 
G|--------------10----|-----10--11---12----|-------------------|-----------------| 
D|--------------12----|-12-----------------|-------------------|-----------------| 
A|--------------------|--------------------|-------------------|-----------------| 
E|--------------------|--------------------|-------------------|-----------------| 

e|---10-8-10----|-10--8----6----5----| 
B|--------------|-----8----8----6----| 
G|-7------------|-----9----9----5----| 
D|--------------|--------------------| 
A|--------------|--------------------| 
E|--------------|--------------------| 
   
 Outro strings 9:41 - 10:19 
e|---------------10---9-----10--12--13----12------10----|---------------------| 
B|-----11-10-8--------10----------------------10--10----|-----------10---11---| 
G|--------------------9---------------------------10----|----9-10---10---10---| 
D|-10---------------------------------------------------|-12--------10---12---| 
A|------------------------------------------------------|---------------------| 
E|------------------------------------------------------|---------------------| 
  
e|---------------------|--------------------------------------------------| 
B|-----------11---10---|--------------10----------------------------------| 
G|----9-10---12---10---|----9-10---12----9-------9------------------------| 
D|-12--------12---12---|-12--------------11--------12-11-12---------------| 
A|---------------------|-----------------12--------------12---------------| 
E|---------------------|---------------------------------13---------------| 
  
************************************ 

| /   slide up 
| \   slide down 
| h   hammer-on 
| p   pull-off 
| ~   vibrato 
| +   harmonic 
| x   Mute note 
| b   Bend 
| pb  Pre-bend 
| br  Bend release 
| pbr Pre-bend release 
| brb Bend release bend 

************************************ 
		  

auto scroll beats size up size down change color hide chords drawings
tab show chords e-chords YouTube Clip e-chords hide all tabs e-chords go to top tab

share