Hannah Montana

Nobody's Perfect

Hannah Montana

tabs Beginner beginner

by  PETER

save to print version add songbook text version e-mail correct tuner
chordsukulelecavacokeyboardtabbassdrumsharmonicaflute Guitar Pro
close

there isn't a video lesson for this song

chords

Nobody's Perfect

	  		Intro: (piano part) 
e-----------11-15-11-------|----------11-16-11-------| 
b--13----13----------13----|-13----13----------13----| 
g-----12----------------12-|----12----------------12-| 
d--------------------------|-------------------------| 
a--------------------------|-------------------------| 
e--------------------------|-------------------------| 

e-----------11-15-11-------|----------11-13-11-------| 
b--13----13----------13----|-13----13----------15-11-| 
g-----12----------------12-|----12-------------------| 
d--------------------------|-------------------------| 
a--------------------------|-------------------------| 
e--------------------------|-------------------------| 

play that twice 


verse 1: 
e-----------------------------------------------------------------| 
b-----------------------------------------------------------------| 
g----------------------6-----------------6------------------6-----| 
d--8----------------8--6-----------------6--4---------------6--4--| 
a--8----------------8--4-----------------4--4---------------4--4--| 
e--6----------------6-----------------------2------------------2--| 
   sometimes i'm in a jam I got to make a plan it might be crazy 

e--------------------| 
b--------------------| 
g--------------------| 
d------------6--8----| 
a------------6--8----| 
e------------4--6----| 
   I do it anyways 

Do that for the next verse too (it's the same chords just different lyrics) 

e--4---------------------6------6----|--4-------------------6-6-6-6---| 
b--4---------------------6--8-----8--|--4-------------------6-6-6-6---| 
g--5---------------------7----7------|--5-------------------7-7-7-7---| 
d--6---let chords ring---8-----------|--6-------------------8-8-8-8---| 
a--6---------------------8-----------|--6-------------------8-8-8-8---| 
e--4---------------------6-----------|--4-------------------6-6-6-6---| 
   If i'm not doing to well             why be so hard on myself- 

Chorus: 
e------------------------------------------------------------------| 
b------------------------------------------------------------------| 
g---------------5-5-5-5-5-5-5-5-------------------8-8-8-8-8-8-8-8--| 
d---------------5-5-5-5-5-5-5-5--6-6-6-6-6-6-6-6--8-8-8-8-8-8-8-8--| 
a---------------3-3-3-3-3-3-3-3--6-6-6-6-6-6-6-6--6-6-6-6-6-6-6-6--| 
e--------------------------------4-4-4-4-4-4-4-4-------------------| 
   Nobody's Perfect I got to work it again and again 'till i get it 

e--------------------| 
b--------------------| 
g--------------------|     same thing again 
d--8-8-8-8-8-8-8-8---| 
a--8-8-8-8-8-8-8-8---| 
e--6-6-6-6-6-6-6-6---| 
   right 


  - same thing all over again - 


bridge: (let notes ring throughout) 
e--4------4----3----3----6---6----6---6-----| 
b--4---4----4----4----4----6---6----6---6---| 
g--5----------------------------------------| 
d--6----------------------------------------| 
a--6----------------------------------------| 
e--4----------------------------------------| 
       sometimes I fix things up and they fall apart again, nobody's perfect 
       I'm gonna mix things up but i always get it right in the end 
       you know i do 

 - intro riff - 

 - Chorus - 
		  

See also:

tabs The Rocky Horror Picture Show - Super Heroes tabs Adam Sandler - Forgetful Lucy tabs School of Rock - School of Rock tabs State Farm - State Farm Theme tabs Giorgio Moroder - Theme from midnight express tabs Vangelis - Blade Runner
e-chords

Other versions:

tabs Hannah Montana - Nobody's Perfect tabs Jessie J - Nobodys Perfect (ver. Acoustic)
auto scroll beats size up size down change color hide chords drawings
tab show chords e-chords YouTube Clip e-chords hide all tabs e-chords go to top tab

share