Hands Off The Barmaid

Funky Future

Hands Off The Barmaid

tabs

by  LINEKERS

save to print version add songbook text version e-mail correct tuner
chordsukulelecavacokeyboardtabbassdrumsharmonicaflute Guitar Pro
close

there isn't a video lesson for this song

chords

Funky Future

	  		Intro 
e|------------------------------------------------------| 
B|----------------(3)---(x8)----h----3--3--s--5~~~~~~---| 
G|---(2)---(x8)----3----(x8)----o----3--3--s--5~~~~~~---| 
D|----3----(x8)----3----(x8)----l----3--3--s--5~~~~~~---| 
A|----3----(x8)----1----(x8)----d----1--1--s--3~~~~~~---| 
E|----1----(x8)----x----(x8)----------------------------| 

Verse 
e|-------------------------------------------------------------| 
B|----10----10----x--(11)--10----6----6----x--(8)--6-----------| 
G|----10----10----x--------10----x----x----x-------x-----------| 
D|----10----10----x--------10----7----7----x-------7-----------| 
A|----8-----8-----x--------8-----5----5----x-------5-----------| 
E|-------------------------------------------------------------| 

e|---------------------------------------------------------| 
B|---------------------------------------------------------| 
G|-----7-7---8p7---------9--9----10p9----------------------| 
D|-----8---8-----8-------10---10------10-------------------|  X 2 
A|-----8-----------8-----10----------------10--------------| 
E|-----6-----------------8---------------------------------| 

Solo 
e|------|---------------------------p-------10-----------------------------------------------------| 
B|------|---------------------------a----13----13-------13-----------------------------------------| 
G|--10--|------10-10~~---10-12b14---u----12-------12b14----12b14r12-12-10~~---10p9-----------------| 
D|------|--s12--------12------------s----------------------------------------------12-10~~--7h8p7~~|   
A|------|---------------------------e--------------------------------------------------------------| 
E|------|------------------------------------------------------------------------------------------| 

e|---------------------------------------------------------| 
B|---------------------------------------------------------| 
G|-----7-7---8p7---------9--9----10p9----------------------| 
D|-----8---8-----8-------10---10------10-------------------|  X 2 
A|-----8-----------8-----10----------------10--------------| 
E|-----6-----------------8---------------------------------| 

Solo over backings 
e|---------------------------------------------------------------------------------------| 
B|---------------------------------------------------------------------------------------| 
G|-10-9s5-s5-3s2-hold-5s10-9s5-3-2-3-3-2-3s5-3-2-3-2-------------------------------------| 
D|---------------------------------------------------3-3s5h7-5s3-3h5s7-5s3-3-5---0-2-3---| 
A|-----------------------------------------------------------------------------3---------| 
E|---------------------------------------------------------------------------------------| 
		  

See also:

tabs Deep Purple - Highway Star tabs Deep Purple - Smoke On The Water (Easy Intro) tabs Deep Purple - Space Truckin tabs Deep Purple - Rat Bat Blues tabs Deep Purple - Smoke On Water (ver. 2) tabs Deep Purple - Lazy
e-chords

Other versions:

tabs Hands Off The Barmaid - Funky Future
auto scroll beats size up size down change color hide chords drawings
tab show chords e-chords YouTube Clip e-chords hide all tabs e-chords go to top tab

share