save to print version add songbook text version e-mail correct tuner
chordsukulelecavacokeyboardtabbassdrumsharmonicaflute Guitar Pro
close

there isn't a video lesson for this song

chords

Cheer Out

	  		Intro 
e|------------------------------------------------------| 
B|------------------------------------------------------| 
G|--2--2--2--2------------------------------------------| 
D|--2--2--2--2------------------------------------------|   X 3 
A|--0--0--0--0-------3----------------------------------| 
E|--------------3p0-------------------------------------| 

e|------------------------------------------------------| 
B|------------------------------------------------------| 
G|--2--2--2--2----------2-----------2-----2--2----------| 
D|--2--2--2--2----------2-----------2-----2--2----------|   X 1 
A|--0--0--0--0-------3--0--3--3--3--0-----0--0----------| 
E|--------------3p0--------------------3--------3-------| 

Riff 
e|------------------------------------------------------| 
B|------------------------------------------------------| 
G|-----------------5h7----------------------------------| 
D|------------5h7-------5h7-----------------------------|   X 4 
A|--0--0?5h7--------------------------------------------| 
E|------------------------------------------------------| 

Chorus 
e|------------------------------------------------------| 
B|------------------------------------------------------| 
G|--8--8--8--7--s--9------------------------------------| 
D|--9--9--9--8--s--10--------intro riff again-----------|   X 4 
A|--9--9--9--8--s--10-----------------------------------| 
E|--7--7--7--6--s--8------------------------------------| 

Break 
e|-----------------------------------------------------------| 
B|-----------------------------------------------------------| 
G|--2pauze--2--2--2pauze--2----------------------------------| 
D|--2-------2--2--2-------2----------------------------------|   X 3 
A|--0-------0--0--0-------0----------------------------------| 
E|---------------------------12s0----------------------------| 

Solo 
e|--8~~~~~~~~~~~~8-------------------------------------------| 
B|-----------------10~-10-8---8-10-10-8~---------------------| 
G|--------------------------9--------------------------------| 
D|-----------------------------------------------------------|   X 2 
A|-----------------------------------------------------------| 
E|-----------------------------------------------------------| 

e|-----------5-----------------------------------------------5-------5-------5-------5------------------| 
B|---------------------------------------------------------5-------5-------5-------5-------------5------| 
G|-----5-7b9---b9l7l5-5h7p5--------------------------5-7b9-----7b9-----7b9-----7b9-----7b9-5-5s7--------| 
D|-5s7----------------------7~-7-5---5-7-7-7-5~--5s7----------------------------------------------------| 
A|---------------------------------7--------------------------------------------------------------------| 
E|------------------------------------------------------------------------------------------------------| 

e|-----------------------------------------------------------| 
B|-----------------------------------------------------------| 
G|--7b9-5----7b9~--5s4~----3~--2~----------------------------| 
D|--------7~-------------------------------------------------|  
A|-----------------------------------------------------------| 
E|-----------------------------------------------------------| 

Back intro riff. 
		  

See also:

tabs Deep Purple - Highway Star tabs Deep Purple - Smoke On The Water (Easy Intro) tabs Deep Purple - Space Truckin tabs Deep Purple - Rat Bat Blues tabs Deep Purple - Smoke On Water (ver. 2) tabs Deep Purple - Lazy
e-chords

Other versions:

tabs Hands Off The Barmaid - Cheer Out
auto scroll beats size up size down change color hide chords drawings
tab show chords e-chords YouTube Clip e-chords hide all tabs e-chords go to top tab

share