Gyroscope

The Lesser Me

Gyroscope

tabs

save to print version add songbook text version e-mail correct tuner
chordsukulelecavacokeyboardtabbassdrumsharmonicaflute Guitar Pro
close

there isn't a video lesson for this song

chords

The Lesser Me

	  		Australia 
Gyroscope - The Lesser Me - lead and rhythm 
 
by dave([email protected]) 
 
x: muted note 
/: slide up 
\: slide down 
 
guitar 1 intro x 3 
e|----------------------------------- 
b|----------------------------------- 
g|-77777777777776667777777777777666-- 
d|----------------------------------- 
a|-55555555555555555555555555555555-- 
e|----------------------------------- 
 
guitar 2 intro (part 1) 
e|----------------------------------- 
b|----------------------------------- 
g|-----------------------xx2/-------- 
d|-----------------------xx2/-------- 
a|----------------------------------- 
e|----------------------------------- 
 
(part 2) 
e|------------------------------------------------------------------ 
b|------------------------------------------------------------------ 
g|------------------------------------------------------------------ 
d|-75554555755545552425-52425-555575554555755545552425-52425-555\--- 
a|------------------------------------------------------------------ 
e|------------------------------------------------------------------ 
 
verse guitar 1 x2 
e|----------------------------------------- 
b|----------------------------------------- 
g|-4-4-xxx-4-4-xxxx4-4-xxx-4-4-xxxx-------- 
d|-4-4-xxx-4-4-xxxx4-4-xxx-4-4-xxxx-------- 
a|-2-2-xxx-2-2-xxxx2-2-xxx-2-2-xxxx-------- 
e|----------------------------------------- 
 
verse guitar 2 
e|----------------------------------------- 
b|----------------------------------------- 
g|----------------------------------------- 
d|-4-4-xxx-4-4-xxxx4-4-xxx-4-4-xxxx-------- 
a|-2-2-xxx-2-2-xxxx2-2-xxx-2-2-xxxx-------- 
e|----------------------------------------- 
 
e|------------------------------------------------ 
b|------------------------------------------------ 
g|-12\11-----12\11-----12\11-----12\11-111111\---- 
d|------------------------------------------------ 
a|-10\-9-----10\-9-----10\-9-----12\-9--9-9-9\---- 
e|------------------------------------------------ 
 
guitar 1 intro 
 
guitar 2 intro part 1 
 
guitar 1 chorus 
e|------------------------------------------------------------------ 
b|------------------------------------------------------------------ 
g|-77777777777777777777777777777777--------------------------------- 
d|-7777777777777777777777777777777755555555555555555555555555555555- 
a|-5555555555555555555555555555555555555555555555555555555555555555- 
e|---------------------------------33333333333333333333333333333333- 
 
guitar 2 chorus 
e|------------------------------------------------------------------ 
b|------------------------------------------------------------------ 
g|------------------------------------------------------------------ 
d|-75554555755545552425-52425-555575554555755545552425-52425-5555--- 
a|------------------------------------------------------------------ 
e|------------------------------------------------------------------ 
 
both guitars 
bridge (use feedback between each couple of notes) 
e|---------------------------------------------- 
b|---------------------------------------------- 
g|---------------------------------------------- 
d|-4-4----4-4----4-4----4-4--------------------- 
a|-2-2----2-2----2-2----2-2--------------------- 
e|---------------------------------------------- 
 
then guitar 2 clean (guitar 1 feedback in the background) 
e|----3-2-------------3-5-3-22--------3-2------- 
b|---3---------------3---------------3---------- 
g|--2---------------2---------------2----------- 
d|-0---------------0---------------0------------ 
a|---------------------------------------------- 
e|---------------------------------------------- 
 
then bridge 
 
guitar 1 intro 
 
guitar 2 intro part 1 
 
both guitars 
outro/chorus x2 
e|------------------------------------------------------------------ 
b|------------------------------------------------------------------ 
g|-77777777777777777777777777777777--------------------------------- 
d|-7777777777777777777777777777777755555555555555555555555555555555- 
a|-5555555555555555555555555555555555555555555555555555555555555555- 
e|---------------------------------33333333333333333333333333333333- 
 
both guitars finish on 
e|------------------- 
b|------------------- 
g|-4-4----4-4\------- 
d|-4-4----4-4\------- 
a|-2-2----2-2\------- 
e|------------------- 
 

		  

See also:

tabs Smashing Pumpkins - Today tabs Bon Jovi - It's My Life tabs Van Halen - Pretty Woman tabs Guns N' Roses - November Rain (Ver. Acoustic) tabs The Offspring - Pretty Fly (For a White Guy) tabs ZZ Top - Bad to the bone
e-chords

Other versions:

tabs Gyroscope - The Lesser Me
auto scroll beats size up size down change color hide chords drawings
tab show chords e-chords YouTube Clip e-chords hide all tabs e-chords go to top tab

share