Gyroscope

Save The Last Match

Gyroscope

tabs

save to print version add songbook text version e-mail correct tuner
chordsukulelecavacokeyboardtabbassdrumsharmonicaflute Guitar Pro
close

there isn't a video lesson for this song

chords

Save The Last Match

	  		Australia 
Gyroscope - Save The Last Match - guitar(rhythm) 
 
by dave([email protected]) 
 
~:let ring 
*:palm mute 
/:slide up 
\:slide down 
 
 
intro/chorus x2 
e|-------------------------------------------------- 
b|-------------------------------------------------- 
g|-7777777777777777--------------------------------- 
d|-777777777777777755-555-555-99555----------------- 
a|-555555555555555555-555-555-99555----------------- 
e|-----------------33-333-333-77333----------------- 
 
verse1 
e|----------------------------------------------------------------- 
b|----------------------------------------------------------------- 
g|------------------**-----------------**-----------------**7~----- 
d|-9~--------------7777~--------------7775~--------------5557~----- 
a|-9~--------------7777~--------------7775~--------------5555~----- 
e|-7~--------------5555~--------------5553~--------------333------- 
 
then 
e|-------------------------------------------------- 
b|-------------------------------------------------- 
g|-------------------------------------------------- 
d|-99999999999999997777777744442222----------------- 
a|-99999999999999997777777744442222----------------- 
e|-77777777777777775555555522220000----------------- 
 
then chorus x2 
 
verse 2 x2 
e|----------------------------- 
b|----------------------------- 
g|----------------------------- 
d|-9/12------------7\5--------- 
a|-----------------7\5--------- 
e|-7/10------------5\3--------- 
 
then 
e|------------------------------------------------------------------ 
b|------------------------------------------------------------------ 
g|------------------------------------------------------------------ 
d|-9999999977777777555555557777777799999999777777775555555544442222- 
a|-9999999977777777555555557777777799999999777777775555555544442222- 
e|-7777777755555555333333335555555577777777555555553333333322220000- 
 
then chorus x2 
 
then 
e|---------------------------------------------- 
b|---------------------------------------------- 
g|-7~------------------------------------------- 
d|-7~------------------------------------------- 
a|-5~------------------------------------------- 
e|---------------------------------------------- 
 
then clean x4 
e|--------------------------0--0--0-- 
b|--3--3--3--3--3--3--3--3---3--3---- 
g|---2--2--2--2--2--2--2--2---2--2--- 
d|-0--0--0--0--0--0--0--0--0--------- 
a|----------------------------------- 
e|----------------------------------- 
 
then chorus x2 
 
then 
e|---------------------------------- 
b|-**--**--**--**------------------- 
g|-7777777777777777----------------- 
d|-----------------55-555-555-99555- 
a|-555555555555555555-555-555-99555- 
e|-----------------33-333-333-77333- 
 
e|-------------------------------------- 
b|-------------------------------------- 
g|-7777777777777777----------------7~--- 
d|-77777777777777775~------------7-7~--- 
a|-55555555555555555~------------7-5~--- 
e|-----------------3~------------5------ 
 
Thats all there is, I cant be rooted tabbing the lead but when i figure it 
out i'll hopefully give it a go. Any queries just email my ass and if you 
think this is wrong, figure it out yourself u lazy bugger. 
 

		  

See also:

tabs Smashing Pumpkins - Today tabs Bon Jovi - It's My Life tabs Van Halen - Pretty Woman tabs Guns N' Roses - November Rain (Ver. Acoustic) tabs The Offspring - Pretty Fly (For a White Guy) tabs ZZ Top - Bad to the bone
e-chords

Other versions:

tabs Gyroscope - Save The Last Match
auto scroll beats size up size down change color hide chords drawings
tab show chords e-chords YouTube Clip e-chords hide all tabs e-chords go to top tab

share