Gustavo Santaolalla

home > Gustavo Santaolall...

The Wings Tab

Gustavo Santaolalla

Difficulty: ExpertExpert

by rtoombs

tuner correct add songbook print version text version save to e-mail
chordsukulelecavacokeyboardtabbassdrumsharmonicsflute Guitar Pro
chords

The Wings

  		"The Wings" 
by Gustavo Santaolalla 
from the Brokeback Mountain Soundtrack 
3/4 time 
 
e-----------1-------0------------| 
B--0-1-3-----------------1-1p0---| 
G--------------------------------| 
D-----------0--------------------| 
A-----0-2----------3-------------| 
E--3--------------------------3--| 
    G am G dm   C    Gsus4 G 
 
e----------------------------| 
B-0-1-0----------------------| 
G----------2------0----0-0---| 
D----------0-----------------| 
A----0------------3----------| 
E-3----3------------------3--| 
  G am G dm   C         G 
Repeat each part as needed. 
 

	  

Full key step upFull key step up
Half key step upHalf key step up
Half key step downHalf key step down
Full key step downFull key step down
Search Paypal
auto scroll beats size up size down change color hide chords drawings
tab show chords e-chords YouTube Clip e-chords hide all tabs e-chords go to top tab