Gustavo Santaolalla

home > Gustavo Santaolall...

Goodnight Tab

Gustavo Santaolalla

Difficulty: EasyEasy

by fernsantana

tuner correct add songbook print version text version save to e-mail
chordsukulelecavacokeyboardtabbassdrumsharmonicsflute Guitar Pro
chords

Goodnight

  		
Tabbed by: earncreek 
E-mail: [email protected] 

Tuning: Standard EADGBe 


          Intro: 
e|----------------7----------------------------------7----------------------| 
B|---8---------8-----8----------8----8-----------8--------------------------| 
G|-9-----9-----------------9------9--------9--------------------------------| 
D|-----9----9-----------9----9----------9-----9-----------------------------| 
A|--------------------------------------------------------------------------| 
E|--------------------------------------------------------------------------| 



e|--------------------------------------------------------------------------| 
B|-8-----------10----7-----8-----8-----8------------------------------------| 
G|-----9-9---9-----9-----9-----9-----9--------------------------------------| 
D|---9-----9-----9-----9-----9-----9----------------------------------------| 
A|--------------------------------------------------------------------------| 
E|--------------------------------------------------------------------------| 

e|-------------------------5/7----7-----7-----------------------------------| 
B|-8-----------10----7------------------------------------------------------| 
G|-----9-9---9-----9-----9------9-----9-------------------------------------| 
D|---9-----9-----9-----9------9-----9---------------------------------------| 
A|--------------------------------------------------------------------------| 
E|--------------------------------------------------------------------------| 

e|--------------------------------------------------------------------------| 
B|-8-----------10----7-----8-----8-----8------------------------------------| 
G|-----9-9---9-----9-----9-----9-----9--------------------------------------| 
D|---9-----9-----9-----9-----9-----9----------------------------------------| 
A|--------------------------------------------------------------------------| 
E|--------------------------------------------------------------------------| 

e|---------------------------------------------0-----0-----0----------------| 
B|-11----10h11p10-----8h10p8------------------------------------------------| 
G|-----9------------9----------9-9---7-7/9---9-----9-----9------------------| 
D|---9------------9----------9-----9-------9-----9-----9-----9--------------| 
A|--------------------------------------------------------------------------| 
E|--------------------------------------------------------------------------| 


          OUTRO: 
e|------------------------------------------------12------------------------| 
B|-----10-------10--7----------8--------------------------------------------| 
G|-9-8------9----------------9-----9-----9-----9-9--------------------------| 
D|--------9---9------------------9----9---------9---------------------------| 
A|--------------------------------------------------------------------------| 
E|--------------------------------------------------------------------------| 

************************************ 

| /   slide up 
| \   slide down 
| h   hammer-on 
| p   pull-off 
| ~   vibrato 
| +   harmonic 
| x   Mute note 
| b   Bend 
| pb  Pre-bend 
| br  Bend release 
| pbr Pre-bend release 
| brb Bend release bend 

************************************ 
	  

Search Paypal
auto scroll beats size up size down change color hide chords drawings
tab show chords e-chords YouTube Clip e-chords hide all tabs e-chords go to top tab