Guns N' Roses

home > Guns N' Roses

Wild Horses (ver. 2) Tab

Guns N' Roses

Difficulty: ExpertExpert

tuner correct add songbook print version text version save to e-mail
chordsukulelecavacokeyboardtabbassdrumsharmonicsflute Guitar Pro
chords

Wild Horses (ver. 2)

  		 
Slash toca essa música com Gilby Clark no show em Tokio pela 
turnê "Use your ilusion", essa música teve várias versões, mudando a 
cada show. Se acharem algum erro talvez seja quando passei 
para tablatura que eu posso ter me enganado, mas 
assim mesmo, correções e sugestões: [email protected] 
Transcripter: André Zamith Selvaggio 
 
(2x) 
e|--10-10-10--10-10-10\8-7-| 
B|--10-10-10--10-10-10\8-8-| 
G|-------------------------| 
D|-------------------------| 
A|-------------------------| 
E|-------------------------| 
 
e|-------------------10------------------------------------- 
B|-(10)b12r10p8-10b12---(10)b12r10-8--8-10-8--(10)b12r10p8-- 
G|-----------------------------------9---------------------- 
D|---------------------------------------------------------- 
A|---------------------------------------------------------- 
E|---------------------------------------------------------- 
 
e|-10-------10------------------------10------10------------ 
B|----10b12---(10)b12r10p8---10-10/12---10b12----(10)b12r10- 
G|-------------------------9-------------------------------- 
D|---------------------------------------------------------- 
A|---------------------------------------------------------- 
E|---------------------------------------------------------- 
 
e|----8p7-8p7-8p7------------------------------------------- 
B|-10-------------8--------------8-(10)b12r10p8-10/12-13p12- 
G|------------------7h9-9----7h9---------------------------- 
D|------------------------8h9------------------------------- 
A|---------------------------------------------------------- 
E|---------------------------------------------------------- 
 
e|----------------------------------------------15---------- 
B|-13p12-13p12-12-12-12\10-10-10--17b19-(17)b19----15b17r15- 
G|---------------------------------------------------------- 
D|---------------------------------------------------------- 
A|---------------------------------------------------------- 
E|---------------------------------------------------------- 
 
e|------------------------------------------------------------- 
B|-13h15---------------------------15------15---------15------- 
G|-------14b15r14-14-12---12h14p12---14b16----(14)b16---(14)b16 
D|---------------------14-------------------------------------- 
A|------------------------------------------------------------- 
E|------------------------------------------------------------- 
 
e|--------------------------------------------------15-----15- 
B|-15--------15---------------------------------------15b17--- 
G|---(14)b16----(14)b16r14p12---12-12--12-14-12-12------------ 
D|----------------------------14-----14----------------------- 
A|------------------------------------------------------------ 
E|------------------------------------------------------------ 
 
e|----------------------------------------------------------- 
B|-(15)b17~-(15)b17r15--13p12-13p12---------------------15--- 
G|----------------------------------12----------12-14b16----- 
D|-------------------------------------12h14-14-------------- 
A|----------------------------------------------------------- 
E|----------------------------------------------------------- 
 
e|------------------------------------------------------------ 
B|---------15---------------------15--15--15--15-15----------- 
G|-(14)b16----(14)b16r14-12-14/16---16--16--16------16p14-14-- 
D|------------------------------------------------------------ 
A|------------------------------------------------------------ 
E|------------------------------------------------------------ 
 
e|----------------------------------------------------------- 
B|----------------------------------15--15------------------- 
G|-14~-14~~-------------12-14-14/16---16--16-16-14-14~--14--- 
D|----------------12h14-------------------------------------- 
A|----------13h14-------------------------------------------- 
E|----------------------------------------------------------- 
 
e|------------------------------------------10- 
B|-17-17-17-15-15\13-13\12-12\10-10\8-10/12---- 
G|--------------------------------------------- 
D|--------------------------------------------- 
A|--------------------------------------------- 
E|---------------------------------------------... 
 
quando tirar o resto eu mando!!!! 
 
 
 
_______________________________________________________ 
Contribuição: André Zamith Selvaggio([email protected]) 

	  

Search Paypal
auto scroll beats size up size down change color hide chords drawings
tab show chords e-chords YouTube Clip e-chords hide all tabs e-chords go to top tab