Guns N' Roses

Wild Horses

Guns N' Roses

tabs Beginner beginner

save to print version add songbook text version e-mail correct tuner
chordsukulelecavacokeyboardtabbassdrumsharmonicaflute Guitar Pro
close

there isn't a video lesson for this song

chords

Wild Horses

	  		
Standard Tuning  

-10-10-10---10/8-8-7~---10-10-10---10-10-10---10/8-8-7~-  
-10-10-10---10/8-8-8~---10-10-10---10-10-10---10/8-8-8~-  
--------------------------------------------------------  
--------------------------------------------------------  
--------------------------------------------------------  
--------------------------------------------------------  
  
-----------------10------------------------10-----10----  
-10b12p8--10b12----10b12p8-8-10-8~--10b12p8--10b----10b-  
--------------------------9-----------------------------  
--------------------------------------------------------  
--------------------------------------------------------  
--------------------------------------------------------  
  
-------8p7-8p7-8p7-------------------------------------  
-10~--------------8----------------8-10b12r10--8-10/12-  
---------------------7h9-9~-----7h9--------------------  
-----------------------------8h9-----------------------  
-------------------------------------------------------  
-------------------------------------------------------  
  
-------------------------------------------------------  
-12---13p12-13p12-13p12-12~--12-10~--10---17b19-17b19--  
-------------------------------------------------------  
-------------------------------------------------------  
-------------------------------------------------------  
-------------------------------------------------------  
  
-15-----------------------------------------------------  
---15b17--13h15--------------------15---15---15---15----  
---------------14b-14-12--12h14p12---14b--14b--14b--14b-  
------------------------14------------------------------  
--------------------------------------------------------  
--------------------------------------------------------  
  
--------------------------------15-----15-------------  
-15-------------------------------15b----15brbr--13b--  
---14b-12--12-12--12-14-12-12~------------------------  
---------14-----14------------------------------------  
------------------------------------------------------  
------------------------------------------------------  
  
---------------------------------------------------------  
-13p12-13p12-----------------15---15------------15--15---  
------------12---------12-14b--14b--14b-12-14/16--16--16-  
--------------12h14-14~----------------------------------  
---------------------------------------------------------  
---------------------------------------------------------  
  
-----------------------------------------------------------  
-15--15---------------------------------15--15-------------  
---16--16p14-14~-14~------------12-14/16--16--16-16-14-14~-  
---------------------------12h14---------------------------  
----------------------13h14--------------------------------  
-----------------------------------------------------------  
  
----------------------------------------10-  
-17-17-17/15-15/13-13/12-12/10-10/8-8/10---  
-------------------------------------------  
-------------------------------------------  
-------------------------------------------  
-------------------------------------------  

		  

See also:

tabs The Doors - People Are Strange tabs The Offspring - The Kids Aren't Alright tabs Jack Johnson - Upside down tabs Guns N' Roses - November Rain (Ver. Acoustic) tabs Jack Johnson - Banana Pancakes (ver. 3) tabs Guns N' Roses - You Could Be Mine
e-chords

Other versions:

tabs Guns N' Roses - Wild Horses tabs The Rolling Stones - Wild Horses tabs Guns N' Roses - Wild Horses (ver. 2)
auto scroll beats size up size down change color hide chords drawings
tab show chords e-chords YouTube Clip e-chords hide all tabs e-chords go to top tab

share